» » »

Cocorosie - Werewolf Bass

Artists:  A B C D E F G H I J K L M N O P Q R S T U V W X Y Z # 

Werewolf Bass

(ver. 1) Click to play this song!
Cocorosie
 Rating:
4/5 (4 votes)
                This is a pretty sick song, so I kind of made up a little bassline for it...

Slower Parts (Beg. w/ Piano)

G-------------------------------------|
D-------------------------------------|
A-3-6---------------------------------|
E-----6-3-----------------------------|

When she starts singing "... get up on that horse and ride into..."

G-----5/7-----10/8--------------------|
D----------------------8h9p8-----6/5--|
A-3-3-----6-6-------------------------|
E------------------6-6-------3-3------|

When he sings "...I had a dream I was a werewolf..." the first three times

G-------------------------------------|
D-5---------3/5-----------------------|
A---1-6-5-3---------------------------|
E-------------------------------------|

Last time he sings that part...

G-------------------------------------|
D-5-----------------------------------|
A---1-6-5-3---------------------------|
E-----------3-------------------------|

Thats what I came up with, but theres alot of room to mess around, so just play with it.

-CM-
            
Submit corrections

↑ Back to top | Tablatures and chords for acoustic guitar and electric guitar, ukulele, drums are parodies/interpretations of the original songs. You may use it for private study, scholarship, research or language learning purposes only