» » »

Cobra Starship - Send My Love To The Dancefloor Tabs

Artists:  A B C D E F G H I J K L M N O P Q R S T U V W X Y Z # 

Send My Love To The Dancefloor Tabs

(ver. 1) Click to play this song!
Cobra Starship
 Rating:
4.4/5 (7 votes)

 Send My Love To The Dancefloor lessons Tabs too difficult? Try these video lessons and learn fast
 
                -----------------------------------------------------------------------------     
Send my love to the Dancefloor (acoustic) – Cobra Starship
-----------------------------------------------------------------------------



Tuning: EBGDAE

Intro:

e|----3-5-7-8-10-8-7h8h7-3--------------------------------------------------|
B|-------------------------3~-5-7-8~-5-5-4-5-7-4-0--------------------------|
G|--2-----------------------------------------------------------------------|
D|--------------------------------------------------------------------------|
A|--------------------------------------------------------------------------|
E|--------------------------------------------------------------------------|

e|----3-5-7-8-10-8-7h8h7-3--------------------------------------------------|
B|-------------------------3~-5-7-8~-4-4-2-4-5--1---------------------------|
G|--2---------------------------------------------2-------------------------|
D|--------------------------------------------------------------------------|
A|--------------------------------------------------------------------------|
E|--------------------------------------------------------------------------|

e|--3~-3-1-0----------------------------------------------------------------|
B|-----------3-0------------------------------------------------------------|
G|---------------0-2-4-1----------------------------------------------------|
D|-----------------------3-2------------------------------------------------|
A|--------------------------------------------------------------------------|
E|--------------------------------------------------------------------------|

Verse:

e|---0-(0)------------------------------1---(1)--------------------------|
B|---1—(0)------------------------------1---(1)--------------------------|
G|---2-(2)------------------------------2---(2)--------------------------| 3x
D|---2—(2)------------------------------3---(3)--------------------------|
A|---0-(0)------------------------------3---(3)--------------------------|
E|--------------------------------------1---(0)--------------------------|

Pre-chorus:

e|------0-----0------1-----------------------0-----1------|
B|-------------------------------------------1-----1------|
G|-2-2----2-2----2-2-------------------------2-----2------|
D|-----------------------------------5-------2-----3------|
A|-----------------------------------5-------0-----3------|
E|-----------------------------------3-------------1------|

Chorus:

e|--------------------------------------------------------------------------|
B|----------------------------------end->---1-1-0-1-1-0-1-------------------|
G|-------------------------------------->---2-2-2-2-2-2-2-------------------|
D|---7----9---10---12---5---3-----------------------------------------------|
A|---7----9---10---12---5---3-----------------------------------------------|
E|---5----7---9----10---3---1-----------------------------------------------|

Bridge’s like, all the things above mixed up. Verse and pre-chorus..
Before the chorus starts again a slow part..:

e|----------5---------------------------------------------------------------|
B|----------5---------------------------------------------------------------|
G|----------5---------------------------------------------------------------|
D|-----7----7----5---3------------------------------------------------------|
A|-----7----7----5---3------------------------------------------------------|
E|-----5----5----3---1------------------------------------------------------|

Chorus and end with:

e|--------------------------------------------------|
B|--1-1-0-1-1---------------------------------------|
G|--2-2-2-2-2---------------------------------------|
D|--------------------------------------------------|
A|--------------------------------------------------|
E|--------------------------------------------------|

I think thats it, if i forgot something ill try to add it later..
Dont forget to rateee!

| /  slide up
| \  slide down
| h  hammer-on
| p  pull-off
| ~  vibrato
| +  harmonic
| x  Mute note
=============================================================================
            
Submit corrections


        Send My Love To The Dancefloor lessons Hard to play? Try these video lessons and learn fast Send My Love To The Dancefloor lessons
        
↑ Back to top | Tablatures and chords for acoustic guitar and electric guitar, ukulele, drums are parodies/interpretations of the original songs. You may use it for private study, scholarship, research or language learning purposes only