Home » C » Coal Chamber »

Coal Chamber - No Home Tabs

Artists:  A B C D E F G H I J K L M N O P Q R S T U V W X Y Z # 

No Home Tabs

(ver. 1) Click to play this song!
Coal Chamber
 Rating:
4/5 (4 votes)
                
Tunning:tunne down low 2 high (BEADGB)      / =slide \= slide  ( )= Harmonic
Effects:Wah as Filter,and chorus

                                   please rate this is my first tab!!!
Intro w/ Dist.& Wah(as a filter)
|-------------------------------------------------------------------------------------------------------------------------------|
|-------------------------------------------------------------------------------------------------------------------------------|
|-------------------------------------------------------------------------------------------------------------------------------|
|-------------------------------------------------------------------------------------------------------------------------------|
|-------------------------------------------------------------------------------------------------------------------------------|
|-0--0--0-----0---0--0--0--0--0-----0---0-0--0--0-----0---0--0--0--0--0-----------------------------------------------|

Riff A w/ Dist.(Wah off here)
|-------------------------------------------------------------------------------------------------------------------------------|
|-------------------------------------------------------------------------------------------------------------------------------|
|-------------------------------------------------------------------------------------------------------------------------------|
|-------------------------------------------------------------------------------------------------------------------------------|
|------------8-------------------8---------------8---------8---------------8------------------8---------------8-------------|
|-0--0--0-----0---0-----0--0-----0-0--0--0-----0---0-----0-0--0--0-----0---0----0--0-----0-0--0--0-----0---0------|

|-----------------------|
|-----------------------|
|-----------------------|
|-----------------------|
|-----------------------|
|-0--0---0--0--0--0--|

Chrous w/ dist.

|-------------------------------------------------------------------------------------------------------------------------------|
|-------------------------------------------------------------------------------------------------------------------------------|
|-4----4-----4/7--7-----7\6--6-----6-----6\5--5-----5-----5\4--4-----4-----4/7--7-----7-----7\6--6-----6-----6------|
|-2----2-----2/5--5-----5\4--4-----4-----4\3--3-----3-----3\2--2-----2-----2/5--5-----5-----5\4--6-----6-----6------|
|-2----2-----2/5--5-----5\4--4-----4-----4\3--3-----3-----3\2--2-----2-----2/5--5-----5-----5\4--4-----4-----4------|
|-------------------------------------------------------------------------------------------------------------------------------|

|--------------------------------------------------|
|--------------------------------------------------|
|\5--5-----5-----5--------5--------5--------5\4|
|\5--5-----5-----5--------5--------5--------5\2|
|\3--3-----3-----3--------3--------3--------3\2|
|--------------------------------------------------|




Bridge w/ clean sound and chorus

|---------------------(12)|
|--------------------------|
|--------------------------|
|--------------------------|
|--------------------------|
|-0------------------------|
                                                        x2
|-------------------------------------------------------------------------------------------------------------------------------|
|-------------------------------------------------------------------------------------------------------------------------------|
|-------------------------------------------------------------------------------------------------------------------------------|
|-----------0------------------------------------0-------------------------0-----------------0--------------------------------|
|------9-----------------------------------9---------------------------9-----------------9------------------------------------|
|-7----------------------------------7----------------------------7------------------7----------------------------------------|


|-------------------------------------|
|-------------------------------------|
|----------0----------0-----0------- | 
|--------0---------0------0-----0--- |     
|------9---------9------9-----9-----|
|-7----------------------------------|


Song order:
Intro x1
Riff A x2
Verse1 repeat intro x 4
Riff A x 1
Verse2 x repeat intro x 4
Riff A x 1
Chorus x1
Riff A x 1
Verse3 x 4
Riff Ax 1
Chorus x 2
Bridge 
Chorus x4
Riff A x 2




-
            
Submit corrections

↑ Back to top | Tablatures and chords for acoustic guitar and electric guitar, ukulele, drums are parodies/interpretations of the original songs. You may use it for private study, scholarship, research or language learning purposes only