Home » C » Coal Chamber »

Coal Chamber - Locoperfect Tabs

Artists:  A B C D E F G H I J K L M N O P Q R S T U V W X Y Z # 

Locoperfect Tabs

(ver. 1) Click to play this song!
Coal Chamber
 Rating:
4/5 (4 votes)
                Band - Coal chamber
Song - Loco
Tuning - C G C F A D

 This honastley sounds exact have a go and rate please


Intro X4
|-0-0-0-0--0---0-00--
|4-4-4-4-4---4--4----
|--------------------
|--------------------
|--------------------
|--------------------

|-0-0-0-0--0---0-00--
|3-3-3-3-3---3--3----
|--------------------
|--------------------
|--------------------
|--------------------

Fill 1
|-
|-
|-
|0
|0 let ring
|0

Main Riff X2
|---------------------------------------
|---------------------------------------
|---------------------------------------
|-0-2-0-2-0-2-0-2-3-2-0-2-0-2-0-2-0-2-8-7
|-0-2-0-2-0-2-0-2-3-2-0-2-0-2-0-2-0-2-8-7
|-0-2-0-2-0-2-0-2-3-2-0—2-0-2-0-2-0-2-8-7

|---------------------------------------
|---------------------------------------
|---------------------------------------
|-0-2-0-2-0-2-0-2-3-2-0-2-0-8-0-2-0-2-0-8
|-0-2-0-2-0-2-0-2-3-2-0-2-0-8-0-2-0-2-0-8
|-0-2-0-2-0-2-0-2-3-2-0-2-0-8-0-2-0-2-0-8

Verse Riff X2
|---------------------------------------
|---------------------------------------
|---------------------------------------
|---------------------------------------
|----------------------------------------
|0202020232020202028702020202320202020287

Chorus
|---------     |---------
|---------     |---------
|---------     |---------
|2-2-22---X4   |1-1-11---X4
|2-2-22---     |1-1-11---
|2-2-22---     |1-1-11---

Fill 1
|-
|-
|-
|0
|0 let ring
|0

Main Riff X2
|---------------------------------------
|---------------------------------------
|---------------------------------------
|-0-2-0-2-0-2-0-2-3-2-0-2-0-2-0-2-0-2-8-7
|-0-2-0-2-0-2-0-2-3-2-0-2-0-2-0-2-0-2-8-7
|-0-2-0-2-0-2-0-2-3-2-0—2-0-2-0-2-0-2-8-7

(1st time round)
|---------------------------------------      
|---------------------------------------      
|---------------------------------------      
|-0-2-0-2-0-2-0-2-3-2-0-2-0-8-0-2-0-2-8-7     
|-0-2-0-2-0-2-0-2-3-2-0-2-0-8-0-2-0-2-8-7     
|-0-2-0-2-0-2-0-2-3-2-0-2-0-8-0-2-0-2-8-7    
                                              
(2nd time round)                             
|---------------------------------------      
|---------------------------------------     
|---------------------------------------     
|-0-2-0-2-0-2-0-2-3-2-0-2-0-2-0-2-0-2-8-7     
|-0-2-0-2-0-2-0-2-3-2-0-2-0-2-0-2-0-2-8-7    
|-0-2-0-2-0-2-0-2-3-2-0—2-0-2-0-2-0-2-8-7     



Verse Riff X2
|---------------------------------------
|---------------------------------------
|---------------------------------------
|---------------------------------------
|----------------------------------------
|0202020232020202028702020202320202020287

Chorus
|---------     |---------
|---------     |---------
|---------     |---------
|2-2-22---X4   |1-1-11---X4
|2-2-22---     |1-1-11---
|2-2-22---     |1-1-11---

Fill 1
|-
|-
|-
|0
|0 let ring
|0


Fill 2 X4
|-----------
|-----------
|-----------
|121-0123---
|121-0123---
|121-0123---

Fill 3 X2
|--------------
|--------------
|7/8----10/-11-
|x-x-X3--x--x--
|5/6-----8/-9--
|--------------

Intro X2
|-0-0-0-0--0---0-00--
|4-4-4-4-4---4--4----
|--------------------
|--------------------
|--------------------
|--------------------

|-0-0-0-0--0---0-00--
|3-3-3-3-3---3--3----
|--------------------
|--------------------
|--------------------
|--------------------

Fill 1
|-
|-
|-
|0
|0 let ring
|0


Main Riff X2
|---------------------------------------
|---------------------------------------
|---------------------------------------
|-0-2-0-2-0-2-0-2-3-2-0-2-0-2-0-2-0-2-8-7
|-0-2-0-2-0-2-0-2-3-2-0-2-0-2-0-2-0-2-8-7
|-0-2-0-2-0-2-0-2-3-2-0—2-0-2-0-2-0-2-8-7

|---------------------------------------
|---------------------------------------
|---------------------------------------
|-0-2-0-2-0-2-0-2-3-2-0-2-0-8-0-2-0-2-8-7
|-0-2-0-2-0-2-0-2-3-2-0-2-0-8-0-2-0-2-8-7
|-0-2-0-2-0-2-0-2-3-2-0-2-0-8-0-2-0-2-8-7

Verse Riff X2
|---------------------------------------
|---------------------------------------
|---------------------------------------
|---------------------------------------
|----------------------------------------
|0202020232020202028702020202320202020287

Chorus
|---------     |---------
|---------     |---------
|---------     |---------
|2-2-22---X4   |1-1-11---X4
|2-2-22---     |1-1-11---
|2-2-22---     |1-1-11---



Fill 1
|-
|-
|-
|0
|0 let ring
|0


Fill 2 X1
|-----------
|-----------
|-----------
|121-0123---
|121-0123---
|121-0123---
            
Submit corrections

↑ Back to top | Tablatures and chords for acoustic guitar and electric guitar, ukulele, drums are parodies/interpretations of the original songs. You may use it for private study, scholarship, research or language learning purposes only