» » »

Classical - Beethoven - Fur Elise Tabs

Artists:  A B C D E F G H I J K L M N O P Q R S T U V W X Y Z # 

Beethoven - Fur Elise Tabs

(ver. 1) Click to play this song!
Classical
 Rating:
4/5 (4 votes)

 Beethoven - Fur Elise lessons Tabs too difficult? Try these video lessons and learn fast
 
                B--------------------------------6---------
G------------------------------------------
D------------------------------------------
A------------------------------------------
E------------------------------------------

e12-11-12-11-12-7-10-8-5-0-3-5-7---8-7-5---
B--------------------------------6---------
G------------------------------------------
D------------------------------------------
A------------------------------------------
E------------------------------------------

e5-7-8-10-5-13-12-10-5-12-10-8-10-8-6------
B------------------------------------------
G------------------------------------------
D------------------------------------------
A------------------------------------------
E------------------------------------------

e12-11-12-11-12-7-10-8-5-0-3-5-7---5-7-8---
B--------------------------------6---------
G------------------------------------------
D------------------------------------------
A------------------------------------------
E------------------------------------------

e12-11-12-11-12-7-10-8-5-0-3-5-7----8--7--5
B--------------------------------6---------
G------------------------------------------
D------------------------------------------
A------------------------------------------
E------------------------------------------
            
Submit corrections


        Beethoven - Fur Elise lessons Hard to play? Try these video lessons and learn fast Beethoven - Fur Elise lessons
        
↑ Back to top | Tablatures and chords for acoustic guitar and electric guitar, ukulele, drums are parodies/interpretations of the original songs. You may use it for private study, scholarship, research or language learning purposes only