» » »

Clapton Eric - Layla Party At The Palace Piano Break Tabs

Artists:  A B C D E F G H I J K L M N O P Q R S T U V W X Y Z # 

Layla Party At The Palace Piano Break Tabs

(ver. 1) Click to play this song!
Clapton Eric
 Rating:
4/5 (4 votes)

 Layla Party At The Palace Piano Break lessons Tabs too difficult? Try these video lessons and learn fast
 
                This is the tab for the PIANO BREAK section of the song

In this tab I've included the basic structure of the song but add in 
gliss, vibratos and 'rubs' to give the feel of the song. I advise listening 
to the track first, if only because in my opinion it is the greatest 
(electric) version of Layla he has ever performed.  

Nice and simple but sounds cool. Enjoy

Standard tuning: e a d g b e


3:38	    4:05	

[-----------[---------------------------------------------------------------------------------
[---Piano---[---------5--5-6--8-8--6-6--5-5-------------------5--5-6--8-8--6-6--5-5-----------
[---Intro---[-----5-7-----------------------7-7--5--------5-7-----------------------7-7--5-7--
[-----------[---5----------------------------------5----5-------------------------------------
[-Free-Time-[---------------------------------------------------------------------------------
[-----------[---------------------------------------------------------------------------------


-----------5----------3-----3-----3--------------------------5-5--------------------5---------
-------5-7---7-5--------5-----5-----5-----4-5-5-4------5-5-7-----7-7-5-4----4-5-7-7---5-4-----
---5/7-----------7-5------5-----5-----5-7---------7---------------------------------------7---

---5-----------------------------------------------------5--5-6--8-8--6-6--5-5----------------
-----7-5-7--------5-5--4-4----------------5-7--------5-7-----------------------7-7-5----------
-----------7-7--------------7-7--5-5--3/5-----5----5---------------------------------7-5---5--


----------------------8-10-8---------------------------------------5------------3-----3-------
---5--------------5/9--------7-5-7--5----7--5-5---5---7--------5-7---7-5----------5-----5-----
-----7-5-------------------------------7--------7---7------5/7-----------7-5--------5-----5---
---------7-5-3--------------------------------------------------------------------------------
 

SOLO  5:11				         BU  BD
---------8-10-12-15-17-15----13-12--------------------------------------------------------------------
--5/8-10---------------------------15-15-13-----15>17<15-13-------------13-15-13-12-------------------
--------------------------------------------14--------------14----12h14-------------14-14-------------
---- --------------------------------------------------------------------------------------------------

                 BD                                                 BU  BD
---12-15-17----21<19----17-17-15-15--13-13-13-12-------------12-15----------------------------
-------------------------------------------------15-13----13-------15>17<15-13-13-----13------
-------------------------------------------------------14--------------------------14----14---

    BU  BD                                         OUTRO  5:39             BU BD
---15>17<15-13-13----------13-15---13--12-10-8-------------8-10-------------------------------
---------------------12/14---------------------10------5/9------7-5--------7>9<7-5---5--------

  				   Piano Break
------------------------------[-------------------]----5--------------------------------------
------------------------------[----------5--------]----7--------------------------------------
-------5-7-5---5--------------[------5-7---7-5----]----7--------------------------------------
---5/7-------7---7-5----------[--5/7-----------7--]----7--------------------------------------
---------------------5-3-5----[-------------------]----5--------------------------------------
------------------------------[-------------------]----5--------------------------------------


Simple

There are a couple of 'turns' towards the end of the solo that I couldn't hear properly 
so if any one else can pick them out please contact me.
            
Submit corrections


        Layla Party At The Palace Piano Break lessons Hard to play? Try these video lessons and learn fast Layla Party At The Palace Piano Break lessons
        
↑ Back to top | Tablatures and chords for acoustic guitar and electric guitar, ukulele, drums are parodies/interpretations of the original songs. You may use it for private study, scholarship, research or language learning purposes only