» » »

Citizen - The Night I Drove Alone Bass

Artists:  A B C D E F G H I J K L M N O P Q R S T U V W X Y Z # 

The Night I Drove Alone Bass

(ver. 1) Click to play this song!
Citizen
 Rating:
4.3/5 (25 votes)


 The Night I Drove Alone lessons Tabs too difficult? Try these video lessons and learn fast
 
                G|-----------------|
D|-----------------|
A|-----------------|
E|-5-5-5-5-5-5-5-5-|

G|-----------------|-----------------|-----------------|-----------------|
D|-----------------|-----------------|-----------------|-----------------|
A|-----------------|-----------------|-2-2-2-2-2-2-2-2-|-4-4-4-4-4-4-4-4-|
E|-3-3-3-3-3-3-3-3-|-3-3-3-3-3-3-3-3-|-----------------|-----------------|

G|-----------------|-----------------|-----------------|-----------------|
D|-----------------|-----------------|-----------------|-----------------|
A|-----------------|-----------------|-2-2-2-2-2-2-2-2-|-4-4-4-4-5-5-5-5-|
E|-3-3-3-3-3-3-3-3-|-3-3-3-3-3-3-3-3-|-----------------|-----------------|

G|-----------------|-----------------|-----------------|-----------------|
D|-----------------|-----------------|-----------------|-----------------|
A|-----------------|-----------------|-2-2-2-2-2-2-2-2-|-4-4-4-4-4-4-4-4-|
E|-3-3-3-3-3-3-3-3-|-3-3-3-3-3-3-3-3-|-----------------|-----------------|

G|-----------------|-----------------|-----------------|-----------------|
D|-----------------|-----------------|-----------------|-----------------|
A|-----------------|-----------------|-2-2-2-2-2-2-2-2-|-----------------|
E|-3-3-3-3-3-3-3-3-|-3-3-3-3-3-3-3-3-|-----------------|-5-5-5-5-5-5-5-5-|

Outro (if you want to play along, there's actually no bass here)
G|----------------|------------------|-----------------|-----------------|
D|----------------|------------------|-----------------|-----------------|
A|-2~-------------|-4~---------------|-----------------|-----------------|
E|----------------|------------------|-3~--------------|-----------------|
            
Submit corrections



        The Night I Drove Alone lessons Hard to play? Try these video lessons and learn fast The Night I Drove Alone lessons
        
↑ Back to top | Tablatures and chords for acoustic guitar and electric guitar, ukulele, drums are parodies/interpretations of the original songs. You may use it for private study, scholarship, research or language learning purposes only