Home » C » Circle Jerks »

Circle Jerks - Letter Bomb Tabs

Artists:  A B C D E F G H I J K L M N O P Q R S T U V W X Y Z # 

Letter Bomb Tabs

(ver. 1) Click to play this song!
Circle Jerks
 Rating:
4.3/5 (20 votes)
                [Verse]
e|---h------h------h----------|
B|----------------------------|
G|-4-6-6--4-6-6--4-6-6--6-6-6-|
D|-4-6-6--4-6-6--4-6-6--6-6-6-| x4
A|-4-4-4--4-4-4--4-4-4--4-4-4-|
E|----------------------------|

[Post-verse]
e|-------------------------|
B|-------------------------|
G|-----------------------9-|
D|-9-9-9-9-9-9-9-9-9-9-9-9-| x2
A|-9-9-9-9-9-9-9-9-9-9-9-7-|
E|-7-7-7-7-7-7-7-7-7-7-7---|

[Verse]
e|---h------h------h----------|
B|----------------------------|
G|-4-6-6--4-6-6--4-6-6--6-6-6-|
D|-4-6-6--4-6-6--4-6-6--6-6-6-| x2
A|-4-4-4--4-4-4--4-4-4--4-4-4-|
E|----------------------------|

[Post-verse]
e|-------------------------|
B|-------------------------|
G|-----------------------9-|
D|-9-9-9-9-9-9-9-9-9-9-9-9-| x2
A|-9-9-9-9-9-9-9-9-9-9-9-7-|
E|-7-7-7-7-7-7-7-7-7-7-7---|

[Chorus]
e|--------------------------------------------------|
B|--------------------------------------------------|
G|-------------------------7-7-----------------9----|
D|-5-5-5-5-5-5-5-5-5-5-5-5-7-7-9-9-9-9-9-9-9-9-9--9-| x2
A|-5-5-5-5-5-5-5-5-5-5-5-5-5-5-9-9-9-9-9-9-9-9-7--9-|
E|-3-3-3-3-3-3-3-3-3-3-3-3-----7-7-7-7-7-7-7-7----7-|

[Verse]
e|---h------h------h----------|
B|----------------------------|
G|-4-6-6--4-6-6--4-6-6--6-6-6-|
D|-4-6-6--4-6-6--4-6-6--6-6-6-| x4
A|-4-4-4--4-4-4--4-4-4--4-4-4-|
E|----------------------------|

[Post-verse]
e|-------------------------|
B|-------------------------|
G|-----------------------9-|
D|-9-9-9-9-9-9-9-9-9-9-9-9-| x2
A|-9-9-9-9-9-9-9-9-9-9-9-7-|
E|-7-7-7-7-7-7-7-7-7-7-7---|

[Solo-ish]
e|----------------------------b-b-b--p----|
B|-/9-9-9-9-9-9-9-9-9-9-9-9-7-9-9-9-9-7---|
G|--------------------------------------9-|
D|----------------------------------------|
A|----------------------------------------|
E|----------------------------------------|

[Post-verse]
e|-------------------------|
B|-------------------------|
G|-----------------------9-|
D|-9-9-9-9-9-9-9-9-9-9-9-9-| x2
A|-9-9-9-9-9-9-9-9-9-9-9-7-|
E|-7-7-7-7-7-7-7-7-7-7-7---|

[Chorus]
e|--------------------------------------------------|
B|--------------------------------------------------|
G|-------------------------7-7-----------------9----|
D|-5-5-5-5-5-5-5-5-5-5-5-5-7-7-9-9-9-9-9-9-9-9-9--9-| x2
A|-5-5-5-5-5-5-5-5-5-5-5-5-5-5-9-9-9-9-9-9-9-9-7--9-|
E|-3-3-3-3-3-3-3-3-3-3-3-3-----7-7-7-7-7-7-7-7----7-|
 
[Verse]
e|---h------h------h----------|
B|----------------------------|
G|-4-6-6--4-6-6--4-6-6--6-6-6-|
D|-4-6-6--4-6-6--4-6-6--6-6-6-| x4
A|-4-4-4--4-4-4--4-4-4--4-4-4-|
E|----------------------------|

[Post-verse]
e|-------------------------|
B|-------------------------|
G|-----------------------9-|
D|-9-9-9-9-9-9-9-9-9-9-9-9-| x2
A|-9-9-9-9-9-9-9-9-9-9-9-7-|
E|-7-7-7-7-7-7-7-7-7-7-7---|
            
Submit corrections

↑ Back to top | Tablatures and chords for acoustic guitar and electric guitar, ukulele, drums are parodies/interpretations of the original songs. You may use it for private study, scholarship, research or language learning purposes only