Home » C » Church »

Church - Reptile Bass

Artists:  A B C D E F G H I J K L M N O P Q R S T U V W X Y Z # 

Reptile Bass

(ver. 1) Click to play this song!
Church
 Rating:
4/5 (4 votes)
                -------------------------------------------------------------------------------
                             REPTILE - The Church
-------------------------------------------------------------------------------
Bassist: Steve Kilbey
Tuning: Standard

| /  slide up
| \  slide down

Fig 1. (Bass enters at 0:06)
G|----------------------|
D|----------------------|
A|10--------------------|
E|--------------3--\----|

(0:12)
G|----------------------|
D|----------------------|
A|10\-------------------|
E|--------------3--\----|

Fig. 2 (0:18)

G|------------------------------------------|
D|5---7-8-10---12----12-12-10-----10-12-5---|
A|---------------------------12-------------|
E|------------------------------------------| 4x

Fig. 3 (0:42)

G|-----------------------------------|
D|-----------------------------------|
A|---------/8888888-66666666-66666666|
E|33333333---------------------------| 4x

Fig 1. Variation (1:07)
G|----------------------|
D|----------------------|
A|10\-------------------|
E|--------------3--/----|

G|----------------------|
D|----------------------|
A|10\-------------------|
E|--------------3-------|

Return to Fig. 2 (1:19) (4x)

Fig 3. (1:44) (4x)

Fig 4. (2:08)

G|---------------------------|
D|5-------7------------------|
A|-----------------3---------|
E|--------------------------3| (3x)

(2:32)
G|---------------------------|
D|5-------7------------------|
A|-----------------3-0-3-0-3-|
E|--------------------------3|

Return to Fig. 1 (2:46)

Fig. 2 (2:59) (4x)

End on Fig. 3 (3:23) (Repeat as necessary, Fade Out)

Form:

Fig. 1
Fig. 2 (4x)
Fig. 3 (4x)
Fig. 1v
Fig. 2 (4x)
Fig. 3 (4x)
Fig. 4
Fig. 1
Fig. 2 (4x)
Fig. 3 (Repeat as necessary)

Notes: Make sure to grab those slides for full effect.

Parts of this song have a lot of space and atmosphere so have fun with that by adding 
extra notes, slides or anything else that sounds good!
            
Submit corrections

↑ Back to top | Tablatures and chords for acoustic guitar and electric guitar, ukulele, drums are parodies/interpretations of the original songs. You may use it for private study, scholarship, research or language learning purposes only