Home » C » Chubby Checker »

Chubby Checker - Lets Twist Again Tabs

Artists:  A B C D E F G H I J K L M N O P Q R S T U V W X Y Z # 

Lets Twist Again Tabs

(ver. 1) Click to play this song!
Chubby Checker
[Chorus]
   C
E|---------0---0-----------0-------|-0-------0---0-------------------|-----0-----------0---------------|
B|---------------------------------|---------------------------------|-------------3-----------3-------|
G|-----0---------------0-------0---|-----0---------------0-------0---|---------------------0-------0---|
D|---------2---------------2-------|---------2---------------2-------|---------2---------------2-------|
A|-3---------------3---------------|-3---------------3---------------|-3---------------3---------------|
E|---------------------------------|---------------------------------|---------------------------------|
           Come on         let's     twist   a-  gain,                     like    we  did     last

   Am                                                                  F
E|---------------------------------|-0-----------0-----------0-------|---------------------------------|
B|-1-------------------------------|---------------------------------|-3-------1---3-------------------|
G|-----2-------2-------2-------2---|-----2---------------2-------2---|-----2---------------2-------2---|
D|---------2---------------2-------|---------2---------------2-------|---------3---------------3-------|
A|-0---------------0---------------|-0---------------0---------------|---------------------------------|
E|---------------------------------|---------------------------------|-1---------------1---------------|
   summer!                                                   Let's     twist   a-  gain,

                                     G
E|-----0-----------0---0-------0---|---------------------------------|---------3-------3-------3-------|
B|-------------3-----------3-------|-----3---------------------------|---------------------------------|
G|---------------------------------|-------------0-------0-------0---|-----0-------0-------0-------0---|
D|---------3---------------3-------|---------0---------------0-------|---------0---------------0-------|
A|---------------------------------|---------------------------------|---------------------------------|
E|-1---------------1---------------|-3---------------3---------------|-3---------------3---------------|
       like        we  did     last  year                                      Do      you     re-

   C                                                                   Am
E|-0-------0-------0---------------|-----0-----------0---0-----------|---------------------------------|
B|---------------------------------|-------------3-----------3-------|-1-------------------------------|
G|-----0-------0-------0-------0---|-----------------------------0---|-----2-------2-------2-------2---|
D|---------2---------------2-------|---------2---------------2-------|---------2---------------2-------|
A|-3---------------3---------------|-3---------------3---------------|-0---------------0---------------|
E|---------------------------------|---------------------------------|---------------------------------|
   mem-    ber     when,                 things      were really       hummin'?

                                     F                                 G
E|-0-----------0-----------0-------|-0-------------------------------|-----0-----------0---------------|
B|---------------------------------|---------1---3-------------------|-------------3-----------3-------|
G|-----2---------------2-------2---|-----2---------------2-------2---|---------------------0-------0---|
D|---------2---------------2-------|---------3---------------3-------|---------0---------------0-------|
A|-0---------------0---------------|---------------------------------|---------------------------------|
E|---------------------------------|-1---------------1---------------|-3---------------3---------------|
                           Let's     twist   a-  gain,                     twistin'    time    is

   C
E|---------------------------------|-3-----------3-------------------|
B|-1-------------------------------|-------------------------1-------|
G|-----0-------0-------0-------0---|-----0---------------0-------0---|
D|---------2---------------2-------|---------2---------------2-------|
A|-3---------------3---------------|-3---------------3---------------|
E|---------------------------------|---------------------------------|
   here.                                         Yeah,       a-

[Verse]
   F                                                                   C
E|-1-------1-------1-------1-------|-1-------1-------1-------1---0---|---------------------------------|
B|---------------------------------|---------------------------------|-------------------------3---1---|
G|-----2-------2-------2-------2---|-----2-------2-------2-----------|-----0-------0-------0-----------|
D|---------3---------------3-------|---------3---------------3-------|---------2---------------2-------|
A|-3---------------3---------------|-3---------------3---------------|-3---------------3---------------|
E|---------------------------------|---------------------------------|---------------------------------|
   round and    round      and       up      and     down    we  go                            again.

                                     F
E|---------------------------------|-1-------1-------1-------1-------|-1-----------1---1-------1-------|
B|-------------------------1-------|---------------------------------|---------------------------------|
G|-----0-------0-------0-------0---|-----2-------2-------2-------2---|-----2-------2-------2-------2---|
D|---------2---------------2-------|---------3---------------3-------|---------3---------------3-------|
A|-3---------------3---------------|-3---------------3---------------|-3---------------3---------------|
E|---------------------------------|---------------------------------|---------------------------------|
                           Oh        baby,   let     me      know,     you         you love    me

   G
E|-3-/-7--------------------------|-3-----------------------3-------|
B|--------------------------------|---------------------------------|
G|------------0-------0-------0---|-----0-------0-------0-------0---|
D|--------0---------------0-------|---------0---------------0-------|
A|--------------------------------|---------------------------------|
E|-3-/-7----------3---------------|-3---------------3---------------|
   so!                                                      Then

[Coda]
                                     C
E|-0-------0---0-------------------|-----0-----------0---------------|
B|---------------------------------|-------------3-----------3-------|
G|-----0---------------0-------0---|---------------------0-------0---|
D|---------2---------------2-------|---------2---------------2-------|
A|-3---------------3---------------|-3---------------3---------------|
E|---------------------------------|---------------------------------|
   twist   a-  gain                      like    we  did     last

   Am                                                                  F
E|---------------------------------|---------0---0-----------0-------|---------------------------------|
B|-1-------------------------------|---------------------------------|-3-------1---3-------------------|
G|-----2-------2-------2-------2---|-----2---------------2-------2---|-----2---------------2-------2---|
D|---------2---------------2-------|---------2---------------2-------|---------3---------------3-------|
A|-0---------------0---------------|-0---------------0---------------|---------------------------------|
E|---------------------------------|---------------------------------|-1---------------1---------------|
   summer.                                   Come on         let's     twist   a-  gain,

   G                                 C
E|-----0-----------0---0-----------|-3-------------------------------|-8-----------8---------|
B|-------------3---------------1---|---------------------------------|-8-----------8---------|
G|---------------------------------|-----0-------0-------0-------0---|-9-----------9---------|
D|---------0---------------0-------|---------2---------------2-------|-----------------------|
A|---------------------------------|-3---------------3---------------|-----------------------|
E|-3---------------3---------------|---------------------------------|-8-----------8---------|
       twist-  in' time        is    here!            
Submit corrections

↑ Back to top | Tablatures and chords for acoustic guitar and electric guitar, ukulele, drums are parodies/interpretations of the original songs. You may use it for private study, scholarship, research or language learning purposes only