Home » C » Chris Young »

Chris Young - Think Of You Duet With Cassadee Pope Tabs

Artists:  A B C D E F G H I J K L M N O P Q R S T U V W X Y Z # 

Think Of You Duet With Cassadee Pope Tabs

(ver. 1) Click to play this song!
Chris Young
[Intro]
|--2-0-----2-0-----|
|------4-------4---|
|--------1-------4-|
|------------------|
|------------------|
|------------------|

[Verse 1]

|---------------------------------------|
|----7-4-7-5-4-7-5-4-4-4-5 -------------|
|---------------------------------------|
|---------------------------------------|
|---------------------------------------|

|-------------------------------------|
|----7-7-7-5-5-4-4-5------------------|
|-------------------------------------|
|-------------------------------------|
|-------------------------------------|
|-------------------------------------|

[Chorus]

|--2-0-------------------2-0-------------------|
|------4---------------------4-----------------|
|--------1---------------------4---------------|
|----------------------------------------------|
|----------------------------------------------|
|----------4-4-4-4-4-4-4---------4-4-4-4-4-4-4-|


[In-Between riff]

|--------------------|
|--7-5-4-7-5-4-5-7-4-|
|--------------------|
|--------------------|
|--------------------|
|--------------------|

[Verse 2]

|---------------------------------------|
|----7-4-7-5-4-7-5-4-4-4-5 -------------|
|---------------------------------------|
|---------------------------------------|
|---------------------------------------|
|---------------------------------------|
|----7-7-7-5-5-4-4-5--------------------|
|---------------------------------------|
|---------------------------------------|
|---------------------------------------|
|---------------------------------------|

[Chorus]

|--2-0-------------------2-0-------------------|
|------4---------------------4-----------------|
|--------1---------------------4---------------|
|----------------------------------------------|
|----------------------------------------------|
|----------4-4-4-4-4-4-4---------4-4-4-4-4-4-4-|

[Verse]
|----------------------|
|----------------------|
|----------------------|
|--------1-------------|
|----2-4-----2-2-2-2-2-|
|--4-------4-----------|

Except after
'Flame like that'
|-------9-11---|
|--9-12------9-|
|--------------|
|--------------|
|--------------|
|--------------|

[Chorus]
'We used to be the life of the party
|-----------------------------|
|------2-0-2-0-2-0-2-0--------|
|--1-1------------------------|
|-----------------------------|
|-----------------------------|
|-----------------------------|
'We used to be the ones that they wish they were'
|---------------------------|
|------2-0-2-0-2-0-2-0------|
|---------------------------|
|---------------------------|
|---------------------------|
|---------------------------|

'But now it's like they don't know how to act. Maybe their like me'
|--------------------------|
|--5-2-3-5-2-3-5-2-3-5-2-3-|
|--------------------------|
|--------------------------|
|--------------------------|
|--------------------------|

'It's like there's always an empty space'
CHORDS ONLY

The rest of the chorus:

|--2-0-------------------2-0-------------------|
|------4---------------------4-----------------|
|--------1---------------------4---------------|
|----------------------------------------------|
|----------------------------------------------|
|----------4-4-4-4-4-4-4---------4-4-4-4-4-4-4-|

[Outro]
|---------9-11-------11-11-----------------------------------11----------------9-----------------|
|--9-12--------9-12------------------------------------12-9----12-9-12-12------------------------|
|---------------------------------------------------------------------------------------------4--|
|-----------------------------------------1------------------------------------------------------|
|------------------------------------2-4----------2-2-2-2----------------------------------------|
|--------------------4-4-4-4-4-------------4-4---------------------------------------------------|

(let the last note ring out)            
Submit corrections

↑ Back to top | Tablatures and chords for acoustic guitar and electric guitar, ukulele, drums are parodies/interpretations of the original songs. You may use it for private study, scholarship, research or language learning purposes only