» » »

Chris Young - Im Comin Over Tabs

Artists:  A B C D E F G H I J K L M N O P Q R S T U V W X Y Z # 

Im Comin Over Tabs

(ver. 1) Click to play this song!
Chris Young
 Rating:
4.3/5 (28 votes)

 Im Comin Over  lessons Tabs too difficult? Try these video lessons and learn fast
 
                e|---------------------------------------------------------------------------|
B|-11-11-10-11-11-13-13-13-11-11----11-11-10-11-11-13-13-13-11-11------------|
G|-10-10-10-10-10-10-10-10-10-10----10-10-10-10-10-10-10-10-10-10------------|
D|---------------------------------------------------------------------------|
A|---------------------------------------------------------------------------|
E|---------------------------------------------------------------------------|

e|---------------------------3-3-3--3--3--3--3--3--3-------------------------|
B|---------------------------8-8-11-11/13-13/15-15/18-18b20------------------|
G|-10h12/15\12--10h12/15\12--------------------------------------------------|
D|---------------------------------------------------------------------------|
A|---------------------------------------------------------------------------|
E|---------------------------------------------------------------------------|

e|-15-----------------15-----------------------------------------------------|
B|-----18-15-------15----18-15-----------------------------------------------|
G|-----------17b19-------------17br--15--------------------------------------|
D|--------------------------------------17-15-17-15-17-----------------------|
A|---------------------------------------------------------------------------|
E|---------------------------------------------------------------------------|
 

[Outro]

e|---------------------------------------------------------------------------|
B|-----6-8-8/11-11/13----13br13br13br13br13-11----11---11--------------------|
G|-5/7-----------------------------------------12------10h12p10--------------|
D|--------------------------------------------------------------12-10-8------|
A|---------------------------------------------------------------------------|
E|---------------------------------------------------------------------------|            
Submit corrections


        Im Comin Over  lessons Hard to play? Try these video lessons and learn fast Im Comin Over  lessons
        
↑ Back to top | Tablatures and chords for acoustic guitar and electric guitar, ukulele, drums are parodies/interpretations of the original songs. You may use it for private study, scholarship, research or language learning purposes only