» » »

Chris Young - Blacked Out Tabs

Artists:  A B C D E F G H I J K L M N O P Q R S T U V W X Y Z # 

Blacked Out Tabs

(ver. 1) Click to play this song!
Chris Young
 Rating:
4.3/5 (10 votes)

 Blacked Out lessons Tabs too difficult? Try these video lessons and learn fast
 
                [Intro]

e|7-----7---7-----7--|----------5-----5--|7-----7---7-----7--|
B|-------------------|8-----8------------|-------------------|
G|-------------------|-------------------|-------------------|
D|5-5-5---5-5-5-5---5|----------5-5-5---5|5-5-5---5-5-5-5---5|
A|-------------------|7-7-7---7----------|-------------------|
E|-------------------|-------------------|-------------------|

[Verse]

e|-------------------|-------------------|-------------------|-------------------|
B|8-----8---8-----8--|7-----7---7-----7--|5-----5---5-----5--|3-----3---3-----3--|
G|-------------------|-------------------|-------------------|-------------------|
D|-------------------|-------------------|-------------------|-------------------|
A|7-7-7---7-7-7-7---7|5-5-5---5-5-5-5---5|3-3-3---3-3-3-3---3|2-2-2---2-2-2-2---2|
E|-------------------|-------------------|-------------------|-------------------|

e|-------------------|-------------------|-------------------|------------------|
B|8-----8---8-----8--|7-----7---7-----7--|5-----5---5-----5--|3-----3---3----3--|
G|-------------------|-------------------|-------------------|------------------|
D|-------------------|-------------------|-------------------|------------------|
A|7-7-7---7-7-7-7---7|5-5-5---5-5-5-5---5|3-3-3---3-3-3-3---3|2-2-2---2--2-2---2|
E|-------------------|-------------------|-------------------|------------------|


[Chorus]

e|7-----7---7-----7--|-------------------|-------------------|-------------------|
B|-------------------|7-----7---7-----7--|8-----8---8-----8--|5-----5---3-----3--|
G|-------------------|-------------------|-------------------|-------------------|
D|5-5-5---5-5-5-5---5|-------------------|-------------------|-------------------|
A|-------------------|5-5-5---5-5-5-5---5|7-7-7---7-7-7-7---7|3-3-3---3-2-2-2---2|
E|-------------------|-------------------|-------------------|-------------------|

e|7-----7---7-----7--|-------------------|---------------|-----------------------|
B|-------------------|7-----7---7-----7--|8-----8---8--7-|5-----5---3------------|
G|-------------------|-------------------|---------------|-----------------------|
D|5-5-5---5-5-5-5---5|-------------------|---------------|-----------------------|
A|-------------------|5-5-5---5-5-5-5---5|7-7-7---7-7--5-|3-3-3---3-2------------|
E|-------------------|-------------------|---------------|-----------------------|

[Interlude]

e|7-----7---7-----7|------------5-----5|
B|-----------------|--8-----8----------|
G|-----------------|-------------------|
D|5-5-5---5-5-5-5--|5-----------5-5-5--|
A|-----------------|--7-7-7---7--------|
E|-----------------|-------------------|

[Verse]

e|-----------------|---------------------|-------------------|-------------------|
B|8-----8---8-----8|--7-----7---7-----7--|5-----5---5-----5--|3-----3---3-----3--|
G|-----------------|---------------------|-------------------|-------------------|
D|-----------------|---------------------|-------------------|-------------------|
A|7-7-7---7-7-7-7--|7-5-5-5---5-5-5-5---5|3-3-3---3-3-3-3---3|2-2-2---2-2-2-2---2|
E|-----------------|---------------------|-------------------|-------------------|

e|-------------------|-------------------|-------------------|------------------|
B|8-----8---8-----8--|7-----7---7-----7--|5-----5---5-----5--|3-----3---3----3--|
G|-------------------|-------------------|-------------------|------------------|
D|-------------------|-------------------|-------------------|------------------|
A|7-7-7---7-7-7-7---7|5-5-5---5-5-5-5---5|3-3-3---3-3-3-3---3|2-2-2---2--2-2---2|
E|-------------------|-------------------|-------------------|------------------|

[Chorus]

e|7-----7---7-----7--|-------------------|-------------------|-------------------|
B|-------------------|7-----7---7-----7--|8-----8---8-----8--|5-----5---3-----3--|
G|-------------------|-------------------|-------------------|-------------------|
D|5-5-5---5-5-5-5---5|-------------------|-------------------|-------------------|
A|-------------------|5-5-5---5-5-5-5---5|7-7-7---7-7-7-7---7|3-3-3---3-2-2-2---2|
E|-------------------|-------------------|-------------------|-------------------|

e|7-----7---7-----7--|-------------------|---------------|-----------------------|
B|-------------------|7-----7---7-----7--|8-----8---8--7-|5-----5---3-----3------|
G|-------------------|-------------------|---------------|-----------------------|
D|5-5-5---5-5-5-5---5|-------------------|---------------|-----------------------|
A|-------------------|5-5-5---5-5-5-5---5|7-7-7---7-7--5-|3-3-3---3-2-2-2---2----|
E|-------------------|-------------------|---------------|-----------------------|

[Solo Background]

e|7-----7---7-----7--|-------------------|-------------------|-------------------|-----------|
B|-------------------|5-----5---5-----5--|7-----7---7-----7--|7-----7---8-----8--|10-----10--|
G|-------------------|-------------------|-------------------|-------------------|-----------|
D|5-5-5---5-5-5-5---5|-------------------|-------------------|-------------------|-----------|
A|-------------------|3-3-3---3-3-3-3---3|5-5-5---5-5-5-5---5|5-5-5---5-7-7-7---7|9--9-9----9|
E|-------------------|-------------------|-------------------|-------------------|-----------|

[Chorus]

e|7-----7---7-----7--|-------------------|-------------------|-------------------|
B|-------------------|7-----7---7-----7--|8-----8---8-----8--|5-----5---3-----3--|
G|-------------------|-------------------|-------------------|-------------------|
D|5-5-5---5-5-5-5---5|-------------------|-------------------|-------------------|
A|-------------------|5-5-5---5-5-5-5---5|7-7-7---7-7-7-7---7|3-3-3---3-2-2-2---2|
E|-------------------|-------------------|-------------------|-------------------|

e|7-----7---7-----7--|-------------------|---------------|-----------------------|
B|-------------------|7-----7---7-----7--|8-----8---8--7-|5-----5---3-----3------|
G|-------------------|-------------------|---------------|-----------------------|
D|5-5-5---5-5-5-5---5|-------------------|---------------|-----------------------|
A|-------------------|5-5-5---5-5-5-5---5|7-7-7---7-7--5-|3-3-3---3-2-2-2---2----|
E|-------------------|-------------------|---------------|-----------------------|

e|-------------------|-----------|
B|8-----8---7-----7--|5-----5---3|
G|-------------------|-----------|
D|-------------------|-----------|
A|7-7-7---7-5-5-5---5|3-3-3---3-2|
E|-------------------|-----------|

[Outro]

e|7-----7---7-----7--|----------5-----5--|7-----7---7-----7--|----------5-----5---7|
B|-------------------|8-----8------------|-------------------|8-----8--------------|
G|-------------------|-------------------|-------------------|---------------------|
D|5-5-5---5-5-5-5---5|----------5-5-5---5|5-5-5---5-5-5-5---5|----------5-5-5---5-5|
A|-------------------|7-7-7---7----------|-------------------|7-7-7---7------------|
E|-------------------|-------------------|-------------------|---------------------|            
Submit corrections


        Blacked Out lessons Hard to play? Try these video lessons and learn fast Blacked Out lessons
        
↑ Back to top | Tablatures and chords for acoustic guitar and electric guitar, ukulele, drums are parodies/interpretations of the original songs. You may use it for private study, scholarship, research or language learning purposes only