Home » C » Christy Nockels »

Christy Nockels - You Revive Me Tabs

Artists:  A B C D E F G H I J K L M N O P Q R S T U V W X Y Z # 

You Revive Me Tabs

(ver. 1) Click to play this song!
Christy Nockels
First time through 
e[-------------------]
B[-------------------]
G[-------------------]
D[--2/4/2p0----------]
A[----------0-0h2----]
E[-0-----------------] (drop D)
Second time through 
e[-------------------]
B[-------------------]
G[-------------------]
D[--2/4/2p0----------]
A[----------0-0h2/4/5]
E[-0-----------------]

(Hold the 2 for a few seconds before sliding to 4th fret)            
Submit corrections

↑ Back to top | Tablatures and chords for acoustic guitar and electric guitar, ukulele, drums are parodies/interpretations of the original songs. You may use it for private study, scholarship, research or language learning purposes only