» » »

Chris Tomlin - God Of This City Tabs

Artists:  A B C D E F G H I J K L M N O P Q R S T U V W X Y Z # 

God Of This City Tabs

(ver. 1) Click to play this song!
Chris Tomlin
 Rating:
4/5 (4 votes)


 God Of This City lessons Tabs too difficult? Try these video lessons and learn fast
 
                This is the solo, and also used as the outro on "Passion, God of This City"

e|-------------------------------------------------------------------------|
B|--9--9--9--9--9--9--7--6--6/--9--9--9--9--9--9--7--6/--------------------|
G|-------------------------------------------------------------------------|
D|-------------------------------------------------------------------------|
A|-------------------------------------------------------------------------|
E|-------------------------------------------------------------------------|

e|----------------------------------------------------11--13--13--13--13---|
B|--9--9--9--9--9--9--7--6/--9--9--9--13--13--13--13-----------------------|
G|-------------------------------------------------------------------------|
D|-------------------------------------------------------------------------|
A|-------------------------------------------------------------------------|
E|-------------------------------------------------------------------------|

e|--11--11--11--11----------------------------------11--13--13--13--13-----|
B|------------------14--14--14--14--14--14--14--14-------------------------|
G|-------------------------------------------------------------------------|
D|-------------------------------------------------------------------------|
A|-------------------------------------------------------------------------|
E|-------------------------------------------------------------------------|

e|--11--11--11--11---------------------------------------------------------|
B|------------------14--14--14--14--14--14--14--14-------------------------|
G|-------------------------------------------------------------------------|
D|-------------------------------------------------------------------------|
A|-------------------------------------------------------------------------|
E|-------------------------------------------------------------------------|
            
Submit corrections



        God Of This City lessons Hard to play? Try these video lessons and learn fast God Of This City lessons
        
↑ Back to top | Tablatures and chords for acoustic guitar and electric guitar, ukulele, drums are parodies/interpretations of the original songs. You may use it for private study, scholarship, research or language learning purposes only