» » »

Chris Tomlin - Even So Come Tabs

Artists:  A B C D E F G H I J K L M N O P Q R S T U V W X Y Z # 

Even So Come Tabs

(ver. 1) Click to play this song!
Chris Tomlin
 Rating:
4.3/5 (16 votes)

 Even So Come lessons Tabs too difficult? Try these video lessons and learn fast
 
                 [Intro]
e|--------15--14---------|
B|-10/12----------10--12-|
G|-----------------------|
D|-----------------------|(2x)
A|-----------------------|
E|-----------------------|

e|---------------|
B|-10/12--15-----|
G|------------11-|
D|---------------|
A|---------------|
E|---------------|

[Verse 1]
-1st verse do nothing

 [Verse 2]
e|-----------------------------------------------------------------------------------------------------------|
B|--------------------------12-12-12-12-12-12-12-12-12-12-12-12-13-13-13-13-13-13-12-12-12-12-12-12----------|
G|-------------------------------------------------------------------------------------------------11-11-11--|
D|777777777777-----------------------------------------------------------------------------------------------|
A|------------99999999999999---------------------------------------------------------------------------------|
E|-----------------------------------------------------------------------------------------------------------|

e|-------------------|
B|-------------------|
G|-------------------|
D|-11-11-11-11-11-11-|
A|-------------------|
E|-------------------|


[Chorus]
-First Part for the Pre-Chorus Single Strum the 1st time / After verse three then do accent strums.
-At the Chorus part do this riff:

e|--------15--15--14---------|
B|-10-12--------------10--12-|
G|---------------------------|
D|---------------------------|
A|---------------------------|
E|---------------------------|



[Outro]
            
Submit corrections


        Even So Come lessons Hard to play? Try these video lessons and learn fast Even So Come lessons
        
↑ Back to top | Tablatures and chords for acoustic guitar and electric guitar, ukulele, drums are parodies/interpretations of the original songs. You may use it for private study, scholarship, research or language learning purposes only