Home » C » Christmas Songs »

Christmas Songs - We Three Kings Fingerpicking Tabs

Artists:  A B C D E F G H I J K L M N O P Q R S T U V W X Y Z # 

We Three Kings Fingerpicking Tabs

(ver. 1) Click to play this song!
Christmas Songs
this is the finger picking version.  

e/----0---------------------------------------------------|
b/------------3-----1--------------0------1----0----------|
g/---------------------------2-------------------------2--|
d/--------------------------------------------------------|
a/----0-------------0----------------------------------0--|
e/---------------------------------0----------------------|
     we three kings of orient are

e/----0---------------------------------------------------|
b/------------3-----1--------------0------1----0----------|
g/---------------------------2-------------------------2--|
d/--------------------------------------------------------|
a/----0-------------0----------------------------------0--|
e/---------------------------------0----------------------|
    bearing gifts we traverse afar

e/--------------------------0-----0----3----2----1---|
b/----1----1----3----3-------------------------------|
g/--------------------------0------------------------|
d/----2---------3------------------------------------|
a/---------------------------------------------------|
e/---------------------------------------------------|
     Field and fountain, moor and mountain

e/------------0--------------------------------|
b/-----3------------3------1-------0-----------|
g/------------------------------------------2--|
d/---------------------------------------------|
a/-----2------------------------------------0--|
e/-------------------------0-------------------|
    Following yonder star

            
Submit corrections

↑ Back to top | Tablatures and chords for acoustic guitar and electric guitar, ukulele, drums are parodies/interpretations of the original songs. You may use it for private study, scholarship, research or language learning purposes only