Home » C » Christmas Songs »

Christmas Songs - We Three Kings Tabs

Artists:  A B C D E F G H I J K L M N O P Q R S T U V W X Y Z # 

We Three Kings Tabs

(ver. 1) Click to play this song!
Christmas Songs
WE THREE KINGS
Traditional Christmas
(Public Domain)
7:30 AM 11/29/2004

Key of Am


  (Am) (E7) (Am)    (E7)    (Am)     (E7) (Am)  (E7)     (Am)  

E--0-----------------------------0--------------------------------
B-------3----1-------0--1--0----------3----1-----0--1--0----------
G----2-------------2----------2----2-----------2---------2--------
D---------------2----------------------------2-------------2------
A-----------------------------------------------------------------
E-----------------------------------------------------------------

   (C)    (G7)     (C)       (G7)   (C) (Dm)    (Am) (E7) (Am)

E--------------------0-----0---3--1--0------0----------------------
B---1----1--3-----3-----0----------------3----3--1----0------------
G------0-------0------------------------------------2-------2------
D------------------------------------------------------------------
A-------------------------------------------------------------0----
E------------------------------------------------------------------

  (G7)  (C)             (Am)  (F) (C)

E-------------------------------------------------------------------
B--0--3---1---1--1--------1--------1---------1-----1--1-------------
G-----------0---------0---------2------0--0-----0-----------0-------
D------------------2---------2--------------------------2-----------
A-------------------------------------------------------------------
E-------------------------------------------------------------------

 (Am) (F) (C)        (G7)   (F)  (C) (G7)   (C)      (F)       (C) 

E--------------------------0--1---0--------0------------------------
B--1------1-----1---1--3-------------3--------1---1-1-----1-----1---
G------2----0-0---0-------------2-------0-------0-------0-----2-----
D----2-------------------0----------------------------2-----3-------
A-------------------------------------------------------------------
E-------------------------------------------------------------------
            
Submit corrections

↑ Back to top | Tablatures and chords for acoustic guitar and electric guitar, ukulele, drums are parodies/interpretations of the original songs. You may use it for private study, scholarship, research or language learning purposes only