Home » C » Christmas Songs »

Christmas Songs - Silent Night In 'g' Tabs

Artists:  A B C D E F G H I J K L M N O P Q R S T U V W X Y Z # 

Silent Night In 'g' Tabs

(ver. 1) Click to play this song!
Christmas Songs
this is my 1st tab, so im not too sure how to set up the format.
but anyway, here are the notes. i hope its right.
any1 who has done alot of tabs: tell me if there is a 
certain amount of spaces that i should put between each 
note, etc.

this is in the key of "g".

e/-----------------|------------------|--5---5---2----|--3----3---------|
b/--3---5---3---0--|--3---5---3---0---|---------------|------------3----|
g/-----------------|------------------|---------------|-----------------|
d/-----------------|------------------|---------------|-----------------|
a/-----------------|------------------|---------------|-----------------|
e/-----------------|------------------|---------------|-----------------|
   silent night       holy night       all is calm	 all is  bright
                                       Shepherds quake   at  the sight
                                       Son of God,       love's pure light

e/---0---0---3---2---0--|----------------------|---0---0---3---2---0--|-------------------|    
b/----------------------|---3---5---3---0------|----------------------|---3---5---3---0---|
g/----------------------|----------------------|----------------------|-------------------|
d/----------------------|----------------------|----------------------|-------------------|
a/----------------------|----------------------|----------------------|-------------------|
e/----------------------|----------------------|----------------------|-------------------|
    round yon virgin       mother and child       holy infant so       tender and mild
    Glories stream from    heaven     afar        Heavenly host sing       Alleluia!
    Radiant beams from     Thy holy face          With the dawn of re-  deeming grace

e/---5---5---8---5---------------7--|---3-----------------------------|
b/----------------------7---8-------|--------3---0---3---1------------|
g/----------------------------------|-------------------------2---0---|
d/----------------------------------|---------------------------------|
a/----------------------------------|---------------------------------|
e/----------------------------------|---------------------------------|
    sleep in heavenly peace             sleep in heavenly peace
    Christ, the Saviour is born         Christ, the Saviour is born
    Jesus, Lord, at Thy birth           Jesus, Lord, at Thy birth
            
Submit corrections

↑ Back to top | Tablatures and chords for acoustic guitar and electric guitar, ukulele, drums are parodies/interpretations of the original songs. You may use it for private study, scholarship, research or language learning purposes only