Home » C » Christmas Songs »

Christmas Songs - O Little Town Of Bethleham Tabs

Artists:  A B C D E F G H I J K L M N O P Q R S T U V W X Y Z # 

O Little Town Of Bethleham Tabs

(ver. 1) Click to play this song!
Christmas Songs
O LITTLE TOWN OF BETHLEHEM
Various Artists (Public Domain)
4:52 PM 11/28/2004

Key of D



E--2--2--2--1--2--5--3----0--------------2--2--
B-----------------------0----3--2h3--2---------
G--------------------------------------2-------
D----------------------------------------------
A----------------------------------------------
E----------------------------------------------

E---2--2--7------------0----------2--0---2-----
B-----------10--10--8-----3--2h3--2----3-------
G----------------------------------------------
D----------------------------------------------
A----------------------------------------------
E----------------------------------------------

E--2--2-------------------------0--2--2--------
B--------5--3--2--2--2-----2--3----------------
G-----------------------4----------------------
D----------------------------------------------
A----------------------------------------------
E----------------------------------------------

E--2--2--1--2-------------7---2--0-------
B---------------10--8--0----3------3-----
G----------------------------------------
D----------------------------------------
A----------------------------------------
E----------------------------------------
            
Submit corrections

↑ Back to top | Tablatures and chords for acoustic guitar and electric guitar, ukulele, drums are parodies/interpretations of the original songs. You may use it for private study, scholarship, research or language learning purposes only