Home » C » Christmas Songs »

Christmas Songs - O Come, All Ye Faithful Tabs

Artists:  A B C D E F G H I J K L M N O P Q R S T U V W X Y Z # 

O Come, All Ye Faithful Tabs

(ver. 1) Click to play this song!
Christmas Songs
O’ Come All Ye’ Faithful

E--------------------------------------------------------------------------------
B------------------------0----0-1-0-------------------------0-----------------
G---0-0------0-2-----------2----------2-0-0-----------0-2-------------------
D----------0--------0---------------------------4-2-4---------4---2--0-0----
A-------------------------------------------------------------------------------
E--------------------------------------------------------------------------------

E--------------------------------------------------------------------------------
B---3---1-0-1---0-------0-------------------------------------------------------
G---------------------2---0-2--------------------------------------------------
D-------------------------------4--2-0----------------------------------------
A-------------------------------------------------------------------------------
E--------------------------------------------------------------------------------

E-------------------------------------------------------------------------------
B-----------------------0-0---0-1-0-----0-1-0---------------1-0--------------
G---0-0----0-2-0------------2----------2--------2-0------0--------2--0-0---
D--------4-----------0--------------------------------4-----------------------
A-------------------------------------------------------------------------------
E------------------------------------------------------------------------------
            
Submit corrections

↑ Back to top | Tablatures and chords for acoustic guitar and electric guitar, ukulele, drums are parodies/interpretations of the original songs. You may use it for private study, scholarship, research or language learning purposes only