Home » C » Christmas Songs »

Christmas Songs - I Saw Three Ships Tabs

Artists:  A B C D E F G H I J K L M N O P Q R S T U V W X Y Z # 

I Saw Three Ships Tabs

(ver. 1) Click to play this song!
Christmas Songs
I SAW THREE SHIPS
Christmas
(Public Domain, from 1666)
September 15, 2003



      (C)      (G7)    (C)       (G7)    (C)           (G7)

E-------------------0--3-----0--------1---0----------0-----------------
B------1---1---3----------------3-------------1--1------3---0----------
G---0----0-------0--------0--------0--------0------0------0-----0--0---
D---------------------------------------------------------------3------
A------3-------3------------------------------------------------2------
E---------------------------------------------------------------3------

  (C)    (G7)    (C)    (G7)    (C)         (G7) (C) (G7)      (C)

E--------------0--3----0------1--0---------------0---------------------
B--1---1--3--------------3-------------1--1--3--------3---------1------
G----0------0-------0------0-------0-------------0--------0--0--0------
D----2---------------------------------------3------------3--3--2------
A--3-----------------------------------------2---3--------------3------
E-----------------------------------------------------3----------------
            
Submit corrections

↑ Back to top | Tablatures and chords for acoustic guitar and electric guitar, ukulele, drums are parodies/interpretations of the original songs. You may use it for private study, scholarship, research or language learning purposes only