Home » C » Christmas Songs »

Christmas Songs - Good King Wenceslas Tabs

Artists:  A B C D E F G H I J K L M N O P Q R S T U V W X Y Z # 

Good King Wenceslas Tabs

(ver. 1) Click to play this song!
Christmas Songs
this part
|--------------------------------------------|
|-1--1--1--3--1--1------------------0--1--1--|
|-------------------0------2--0--2-----------|
|--------------------------------------------|
|--------------------------------------------|
|--------------------------------------------|

do this part again

|-3--1--0-----0-----------------------------|
|----------3-----3--1------------0--1---1---|
|-----------------------2--0--2-------------|
|-------------------------------------------|
|-------------------------------------------|
|-------------------------------------------|


|-----------------------3--1--0--------1----1-|
|----------0--1--1--3------------3--1---------|
|-0--0--2-------------------------------------|
|---------------------------------------------|
|---------------------------------------------|
|---------------------------------------------|
            
Submit corrections

↑ Back to top | Tablatures and chords for acoustic guitar and electric guitar, ukulele, drums are parodies/interpretations of the original songs. You may use it for private study, scholarship, research or language learning purposes only