Home » C » Christmas Songs »

Christmas Songs - God Rest Ye Merry, Gentlemen Tabs

Artists:  A B C D E F G H I J K L M N O P Q R S T U V W X Y Z # 

God Rest Ye Merry, Gentlemen Tabs

(ver. 1) Click to play this song!
Christmas Songs
|----------------------------------------------|
|-------0--0-----------------------------0-----|
|-------------2--0-----------------0--2--------| x 2
|-2--2--------------4--2--0--2--4--------------|
|----------------------------------------------|
|----------------------------------------------|


|-------------------0-----------------------|
|-0--1-----0--1--3-----0--------------------|
|-------2-----------------2--0--------0--2--|
|-------------------------------2--4--------|
|-------------------------------------------|
|-------------------------------------------|


|---------------------------------------------|
|-------0---1--0--0---------------------------|
|-0--2---------------2--0---------0-------2---|
|--------------------------4--2-----4--2------|
|---------------------------------------------|
|---------------------------------------------|


|----------------0--------------------------|
|-------0--1--3-----0-----------------------|
|-0--2-----------------2--0-----------------|
|----------------------------4--2-----------|
|-------------------------------------------|
|-------------------------------------------|
            
Submit corrections

↑ Back to top | Tablatures and chords for acoustic guitar and electric guitar, ukulele, drums are parodies/interpretations of the original songs. You may use it for private study, scholarship, research or language learning purposes only