Home » C » Christmas Songs »

Christmas Songs - Frosty The Snow Man Tabs

Artists:  A B C D E F G H I J K L M N O P Q R S T U V W X Y Z # 

Frosty The Snow Man Tabs

(ver. 1) Click to play this song!
Christmas Songs
Guitar in standard tuning (E A D G B E)

E:|-------------------------------------|
A:|-------------------------------------|
D:|-7--4-5-7-------------9-7------------|
G:|----------7-6-7-9-7-6----------------|
B:|-------------------------------------|
e:|-------------------------------------|

E:|-------------------------------------|
A:|-------------------------------------|
D:|------------9-9-7---4-7-9-7-5-4-2-7--|
G:|--6-7-9-7-6-------7------------------|
B:|-------------------------------------|
e:|-------------------------------------|
            
Submit corrections

↑ Back to top | Tablatures and chords for acoustic guitar and electric guitar, ukulele, drums are parodies/interpretations of the original songs. You may use it for private study, scholarship, research or language learning purposes only