Home » C » Chris De Burgh »

Chris De Burgh - The Snows of New York Tabs

Artists:  A B C D E F G H I J K L M N O P Q R S T U V W X Y Z # 

The Snows of New York Tabs

(ver. 1) Click to play this song!
Chris De Burgh
 Rating:
4/5 (4 votes)
                Throughout the song you hear a fingerpicking pattern.
With every chords below you play this pattern.
In the third verse you play Em and B, beware to play those patterns 2 times.

G D Am Em C G
E:|-----3---| |-----2---| |-----0---| |-----0---| |---------3---|
B:|-------3-| |-------3-| |-------1-| |-------0-| |-----------3-|
G:|---0-----| |---2-----| |---2-----| |---0-----| |---0---0-----|
D:|---------| |-0-------| |---------| |---------| |-------------|
A:|---------| |---------| |-0-------| |---------| |-3---3-------|
E:|-3-------| |---------| |---------| |-0-------| |-------------|

Dsus4 D B
E:|-----3---3---2---| |-----2---|
B:|-------3---3---3-| |-------4-|
G:|---2-------------| |---4-----|
D:|-0---------------| |---------|
A:|-----------------| |-2-------|
E:|-----------------| |---------|

Start with picking the G 3 times before start with the first verse.            
Submit corrections

↑ Back to top | Tablatures and chords for acoustic guitar and electric guitar, ukulele, drums are parodies/interpretations of the original songs. You may use it for private study, scholarship, research or language learning purposes only