» » »

Chris De Burgh - The Last Moments of the Dawn Tabs

Artists:  A B C D E F G H I J K L M N O P Q R S T U V W X Y Z # 

The Last Moments of the Dawn Tabs

(ver. 1) Click to play this song!
Chris De Burgh
 Rating:
4/5 (4 votes)

 The Last Moments of the Dawn lessons Tabs too difficult? Try these video lessons and learn fast
 
                Solo 

And your eyes are glowing with the light of love (1:10)
e|---------------------------------------------------------------------------|
B|---------------------------------------------------------------------------|
G|---------------------------------------------------------------------------|
D|-/15-14-15-12-----12-14-15-14-15-12----------------------------------------|
A|---------------15--------------------15\-----------------------------------|
E|---------------------------------------------------------------------------|

Could be the first day of my life with you (2:00)
e|---------------------------------------------------------------------------|
B|---------------------------------------------------------------------------|
G|----------------12-14-14--14-12--------------------------------------------|
D|-------------15-----------------14-12--------12h14/15-15p14\12~\-----------|
A|-12-13-15-15--------------------------15--15-------------------------------|
E|---------------------------------------------------------------------------|

e|---------------------------------------------------------------------------|
B|---------------------------------------------------------------------------|
G|----19h20p19\17------------------------------------------------------------|
D|----------------18h19p18\16-15h16p15\14-14\--------------------------------|
A|-20------------------------------------------------------------------------|
E|---------------------------------------------------------------------------|            
Submit corrections


        The Last Moments of the Dawn lessons Hard to play? Try these video lessons and learn fast The Last Moments of the Dawn lessons
        
↑ Back to top | Tablatures and chords for acoustic guitar and electric guitar, ukulele, drums are parodies/interpretations of the original songs. You may use it for private study, scholarship, research or language learning purposes only