» » »

Chris De Burgh - Read My Name (Remix) Tabs

Artists:  A B C D E F G H I J K L M N O P Q R S T U V W X Y Z # 

Read My Name (Remix) Tabs

(ver. 1) Click to play this song!
Chris De Burgh
 Rating:
4/5 (4 votes)

 Read My Name (Remix) lessons Tabs too difficult? Try these video lessons and learn fast
 
                SOLO

e|-----------------------------------------------------------------------------------|
B|-17-------17-17-------17-16-----------------------------17-16----17-16----------16-|
G|----------------------------18-16-18-----------------18-------18-------18-17-18----|
D|----18-18-------16-16----------------18~\---16-18-18-------------------------------|
A|-----------------------------------------------------------------------------------|
E|-----------------------------------------------------------------------------------|

e|-----------------------------------------------------------------------------------|
B|-17-------17-17-------17-16-----------------------------17-16----17-16----------16-|
G|----------------------------18-16-18-----------------18-------18-------18-17-18----|
D|----18-18-------16-16----------------18~\---16-18-18-------------------------------|
A|-----------------------------------------------------------------------------------|
E|-----------------------------------------------------------------------------------|

e|-----------------------------------------------------------------------------------|
B|-17-------17-17-------17-16-----------------------------17-16----17-16----------16-|
G|----------------------------18-16-18-----------------18-------18-------18-17-18----|
D|----18-18-------16-16----------------18~\---16-18-18-------------------------------|
A|-----------------------------------------------------------------------------------|
E|-----------------------------------------------------------------------------------|

e|-----------------------------------------------------------------------------------|
B|-17-------17-17-------17-16-----------------------------17-16----17-16~------------|
G|----------------------------18-16-18-----------------18-------18----------18\------|
D|----18-18-------16-16----------------18~\---16-18-18-------------------------------|
A|-----------------------------------------------------------------------------------|
E|-----------------------------------------------------------------------------------|            
Submit corrections


        Read My Name (Remix) lessons Hard to play? Try these video lessons and learn fast Read My Name (Remix) lessons
        
↑ Back to top | Tablatures and chords for acoustic guitar and electric guitar, ukulele, drums are parodies/interpretations of the original songs. You may use it for private study, scholarship, research or language learning purposes only