Home » C » Chris De Burgh »

Chris De Burgh - Borderline Tabs

Artists:  A B C D E F G H I J K L M N O P Q R S T U V W X Y Z # 

Borderline Tabs

(ver. 1) Click to play this song!
Chris De Burgh
 Rating:
4/5 (4 votes)
                This is my first tab so please rate it.
There are many ways to play this solo but i think this is the easiest way.
I have made a low and a high version.

| ~  Vibrato
| /  Slide Up
| \  Slide Down
| () You can play this note but it is not necessary

Low version:
E:--------6-5-3-5~---3-1/3-5---------6------------------|
B:-/1------------------------6~-----------------5-6-8---|
G:------------------------------------------------------|
D:------------------------------------------------------|
A:------------------------------------------------------|
E:------------------------------------------------------|

E:----6-5-3-5~---3-1/3-5-------6-------------5-3-5------|
B:-1---------------------6~------------------------6~---|
G:------------------------------------------------------|
D:------------------------------------------------------|
A:------------------------------------------------------|
E:------------------------------------------------------|

High version:
E:----------18-17-15-17~---15-13/15-17-----------18------------------------|
B:-/13---------------------------------18~----------------------17-18-20---|
G:-------------------------------------------------------------------------|
D:-------------------------------------------------------------------------|
A:-------------------------------------------------------------------------|
E:-------------------------------------------------------------------------|

E:----18-17-15-17~---15-13/15-17--------18---------------17-15-17----------|
B:-13----------------------------18~------------------------------18~------|
G:-------------------------------------------------------------------------|
D:-------------------------------------------------------------------------|
A:-------------------------------------------------------------------------|
E:-------------------------------------------------------------------------|
            
Submit corrections

↑ Back to top | Tablatures and chords for acoustic guitar and electric guitar, ukulele, drums are parodies/interpretations of the original songs. You may use it for private study, scholarship, research or language learning purposes only