» » »

Chris Cornell - Flutter Girl Tabs

Artists:  A B C D E F G H I J K L M N O P Q R S T U V W X Y Z # 

Flutter Girl Tabs

(ver. 1) Click to play this song!
Chris Cornell
 Rating:
4.2/5 (5 votes)


 Flutter Girl lessons Tabs too difficult? Try these video lessons and learn fast
 
                Chris Cornell - "Flutter Girl"
Standard Tuning, 2 guitars 

The chord voicings in this song are complex, but have fun! Rate this tab please

Acoustic Intro - Play 3x
    E        E7  E             
e|--0---------0--0-----------|
B|--0---------0--0-----------|
G|--1---------1--1-----------|
D|--2---------0--2-----------|
A|--2---------2--2-----------|
E|--0---------0--0-----------|

on 3rd time, Electric joins with
Electric Riff 1:
e|-----------4------------|
B|-----5------------------|
G|--------7---------------|
D|------------------------|
A|------------------------|  w/ tremelo, light distortion & reverb
E|--0---------------------|



Acoustic Verse Riff 1 (singing begins at end of 1st bar)
play 3x, with Electric Riff 1 added
e|--0---------0--0-----0-0-0-|
B|--0---------0--0-----0-1-1-|
G|--1---------1--1-----0-2-2-|
D|--2---------0--2-----0-2-2-|
A|--2---------2--2-----0-0-0-|
E|--0---------0--0-----------|


Verse Riff 2 (doubled)
    E     C     C#m          Bbm(b5)     A           E          C     A7
e|--0-----0-----4-----4----|-0---0-0-0---0---0-0-0-|-0-----0----------------|
B|--0-----1-----5-----5----|-2---2-2-2---2---2-2-2-|-0-----0----1-1---2--2--|
G|--1-----0-----6-----6----|-3---3-3-3---2---2-2-2-|-1-----1----0-0---0--0--|
D|--2-----2-----6-----6----|-2---2-2-2---2---2-2-2-|-2-----2----2-2---2--2--|
A|--2-----3-----4-----4----|-1---1-1-1---0---0-0-0-|-2-----2----3-3---0--0--|
E|--0----------------------|-----------------------|-0-----0----------------|

Replay Verse Riff 1

Verse Riff 3
    E     C     C#m          Bbm(b5)     A           E6              A7
e|--0-----0-----4-----4----|-0---0-0-0---0---0-0-0-|-0-----0-0-0-----0----|
B|--0-----1-----5-----5----|-2---2-2-2---2---2-2-2-|-2-----2-2-2-----2----|
G|--1-----0-----6-----6----|-3---3-3-3---2---2-2-2-|-1-----1-1-1-----0----|
D|--2-----2-----6-----6----|-2---2-2-2---2---2-2-2-|-2-----2-2-2-----2----|
A|--2-----3-----4-----4----|-1---1-1-1---0---0-0-0-|-2-----2-2-2-----0----|
E|--0----------------------|-----------------------|-0-----0-0-0----------|


Chorus - play 2x with different endings
Acoustic
e|-0----0-----0-0-0-0-----0--|-0----0----0-----3-3-3----3-|
B|-0----0-----0-3-3-3-----3--|-1----1----1-----3-3-3----3-|
G|-1----1-----1-2-2-2-----2--|-0----0----0-----0-0-0----0-|
D|-2----2-----2-0-0-0-----0--|-2----2----2-----0-0-0----0-|
A|-2----2--------------------|-3----3----3-----1-1-1----1-|
E|-0----0--------------------|----------------------------|
 |
 | 2 Electrics (one has dist, one has wah)
e|---------------------------|----------------------------|
B|---------------------------|----------------------------|
G|------------9\7-7-7-----7--|-5----5----5-----7-7-7----7-|
D|------------9\7-7-7-----7--|-5----5----5-----7-7-7----7-|
A|------------7\5-5-5-----5--|-3----3----3h5p3------------|
E|-0----0--------------------|-----------------6-6-6----6-|

   Acoustic                       Ending 1 (2 beats)    Ending 2 (6 beats)

e|-4----4----4-----3-3-3---|      -4----4-5---5--|    -4--4-1--1-3----3----4--4-5--5-|
B|-4----4----4-----3-3-3---|      -4----4-5---5--|    -4--4-1--1-3----3----4--4-5--5-|
G|-5----5----5-----4-4-4---|      -5----5-6---6--|    -5--5-2--2-4----4----5--5-6--6-|
D|-4----4----4-----5-5-5---|      -4----4-5---5--|    -4--4-3--3-5----5----4--4-5--5-|
A|-6----6----6-----5-5-5---|      -6----6-7---7--|    -6--6-3--3-5----5----6--6-7--7-|
E|-4----4----4-----3-3-3---|      -4----4-5---5--|    -4--4-1--1-3----3----4--4-5--5-|
 |
 | Electrics
e|-------------------------|      ---------------|    -------------------------------|
B|-------------------------|      ---------------|    -------------------------------|
G|-5----5----5-----4-------|      -5----5-6---6--|    -5--5-2--2-4----4----5--5-6--6-|
D|-5----5----5-----5-------|      -4----4-5---5--|    -4--4-3--3-5----5----4--4-5--5-|
A|-----------------5-------|      -6----6-7---7--|    -6--6-3--3-5----5----6--6-7--7-|
E|-4----4----4h6p4-3-------|      -4----4-5---5--|    -4--4-1--1-3----3----4--4-5--5-|


Solo
e|-------17b18r17-15--------------------|--------------------------------------------------|
B|-------------------17-----------------|--------------------------------------------------|
G|--------------------------14b15r14-12-|--------------------------------------------9tr11-|
D|--------------------------------------|-14-12--------------------------------------------|
A|--------------------------------------|-------14-12----10-------12h13p12-10--------------|
E|-0------------------------------------|-------------10----12-10------------10-12-10------|

e|-------15----15----15-17b18r17~----------|----------------------------------------------------|
B|---/17----17----17-----------------------|-13b15-b15-b15r13-------16-----16-----16------------|
G|---------------------------------15---15-|-----------------15-13qb---13qb---13qb---11h13p11---|
D|-----------------------------------------|-------------------------------------------------13-|
A|-----------------------------------------|----------------------------------------------------|
E|-----------------------------------------|----------------------------------------------------|

Solo Rhythm (strumming may differ slightly)
  play 3x                          4th bar
e|-0-----0--0--3---3-0---0---|    -6---6---6-6---6---4---4---4-4--4-|
B|-0-----0--0--5---5-0---0---|    -8---8---8-8---8---4---4---4-4--4-|
G|-0-----0--0--3---3-0---0---|    -8---8---8-8---8---5---5---5-5--5-|
D|-2-----2--2--5---5-2---2---|    -8---8---8-8---8---4---4---4-4--4-|
A|-2-----2--2--4---4-3---3---|    -6---6---6-6---6---6---6---6-6--6-|
E|-0-----0--0----------------|    -------------------4---4---4-4--4-|



Interlude
e|---------------------------------|---------------------------------|
B|-----4-1---2-4-------3-----1-3---|---------------------------------|
G|---3---------------2---3---------|---------------------------------|
D|-1-------------1-0-------------0-|-----6-3---4-6-------5-----3-5---|
A|---------------------------------|---6---------------5---6---------|
E|---------------------------------|-4-------------4-3-------------3-|

                                     w/ Electric Riff 2
e|---------------------------------|-----------0-0-0-------|-0--------0-0-0---|
B|-----4-1---2-4-------3-----1-3---|-----------5-5-5-----5-|-5--------5-5-5---|
G|---3---------------2---3---------|-----------6-6-6-----6-|-6--------6-6-6---|
D|-1-------------1-0-------------0-|-----------7-7-7-----5-|-7--------7-7-7---|
A|---------------------------------|-0---------0-0-0-----0-|-0--------0-0-0---|
E|---------------------------------|-----------------------|------------------|


Electric Riff 2: (w/ tremelo, light distortion & reverb)
e|-------------9----------|
B|-----10-----------------|
G|---------12-------------|
D|------------------------|
A|--0---------------------|
E|------------------------| play 2x


Play Chorus

Play Intro and Electric Riff 1 to end song



KEY:

| /   slide up
| \   slide down
| b   string bend
| r   release of bent string
| h   hammer-on
| p   pull-off
| ~   vibrato
| +   harmonic
| x   Mute note
| PM  palm mute
| tr  trill (hammer-on and pull-off several times)
| qb  quarter bend (slightly bend string, but not enough to sound like next fret)
            
Submit corrections



        Flutter Girl lessons Hard to play? Try these video lessons and learn fast Flutter Girl lessons
        
↑ Back to top | Tablatures and chords for acoustic guitar and electric guitar, ukulele, drums are parodies/interpretations of the original songs. You may use it for private study, scholarship, research or language learning purposes only