» » »

Chris Cornell - Blow Up The Outside World Acoustic Live Chords

Artists:  A B C D E F G H I J K L M N O P Q R S T U V W X Y Z # 

Blow Up The Outside World Acoustic Live Chords

(ver. 1) Click to play this song!
Chris Cornell
 Rating:
4.3/5 (9 votes)

 Blow Up The Outside World Acoustic Live lessons Tabs too difficult? Try these video lessons and learn fast
 
                [Verse 1]

E       C       Cmaj7 E       C D*                                         
Nothing   seems to    kill me 
E           E7         D   Dsus2 C G6
  No matter how hard I try
F#                       F#    B G*    
   Nothing is closing my eyes
C                      Am7                    F#       
  Nothing can beat me down for your pain or delight

   B  A            F#
e|-----------------2--2---|---------------------|
B|-4--2--2--2-2--2-2--2---|---------------------|
G|-4--2--2--2-2--2-3--3---|---------------------|
D|-4--2--2--2-2--2-4--4---|---------------------|
A|-2--0--0--0-0--0-4--4---|---------------------|
E|-----------------2--2---|-----------0-2h4p2p0-|
   E  E  E  S E  S E  Q     H     E.  S S S S S 

[Verse 2]

    E       C       Cmaj7 E        C D*                               
And nothing   seems to    break me
E           E7         D    Dsus2 C G6                                                     
  No matter how hard I fall 
F#                         F#   B G*
   Nothing can break me at all
C                    Am7
  Not one for giving up though not invincible
F#   A
   I know

        
[Chorus]
                         C     
I've giving everything I need
C                         B   
I'd give you everything I own
B                          G*       C#     A*        
I'd give in if it could at least be ours alone
A*                      C       
I've given everything I could
C                      F#   
To blow it to hell and gone
F#                 
Burrow down in and
E           C       Cmaj7                  
Blow up the outside
E           C       Cmaj7                  
Blow up the outside
E           C       Cmaj7   E         D/F#               
Blow up the outside         world
                         e|-0--0-0--0-2----------|--------|
                         B|-0--0-0--0-3----------|--------|
                         G|-1--1-1--1-2----------|--------|
                         D|-2--2-2--2-0----------|--------|
                         A|-2--2-2--2------------|--------|
                         E|-0--0-0--0-2----------|--------|
                            E  S E  S S S H
                                          1 + 2 + 3 + 4 + 

[Verse 3]

E       C       Cmaj7  E           C     Cmaj7                     
Someone   tried to     tell me something
E               E7              D    Dsus2 C G6
  Don't let the world bring you down
F#                                B  G* C        
   Nothing will do me in before I do my-self
C                   Am7                      F#   
So save it for your own and the ones you can help
                 A
The ones you can help


[Chorus]
                         C     
I've giving everything I need
C                         B   
I'd give you everything I own
B                          G*       C#     A*        
I'd give in if it could at least be ours alone
A*                      C       
I've given everything I could
C                      F#   
To blow it to hell and gone
F#                 
Burrow down in and
E           C       Cmaj7                  
Blow up the outside
E           C       Cmaj7                  
Blow up the outside
E           C       Cmaj7   E          D/F#               
Blow up the outside         world
                         e|-0--0-0--0-2----------|--------|
                         B|-0--0-0--0-3----------|--------|
                         G|-1--1-1--1-2----------|--------|
                         D|-2--2-2--2-0----------|--------|
                         A|-2--2-2--2------------|--------|
                         E|-0--0-0--0-2----------|--------|
                            E  S E  S S S H
                                          1 + 2 + 3 + 4 + 
        
[Solo]

     E            C        Cmaj7    
e||--0-----0--0-0-0-----0--0-0--||
B||o-0-----0--0-0-1-----1--0-0-o||
G||--1-----1--1-0-0--0--0--0-0--||
D||--2--2--2--2-0-2--2--2--2-0--||
A||o-2--2--2--2-0-3--3--3--3-0-o||
E||--0--0--0--0-0---------------|| X7 
     E  E  E  S S E  E  E  S S


[Bridge]
                                                                                         D/F#
   E         A   C  A     D/F#                   A   C  A     D/F#                   A   |  A   
e|-0-----0---0-0-0--0-0-|-2-----------|----------0-0-0--0-0-|-2-----------|----------0-0-2--0-0-|
B|-0-----0---2-2-1--2-2-|-3-----------|----------2-2-1--2-2-|-3-----------|----------2-2-3--2-2-|
G|-1-----1---2-2-0--2-2-|-2-----------|----------2-2-0--2-2-|-2-----------|----------2-2-2--2-2-|
D|-2--2--2---2-2-2--2-2-|-0-----------|----------2-2-2--2-2-|-0-----------|----------2-2-0--2-2-|
A|-2--2--2---0-0-3--0-0-|-------------|----------0-0-3--0-0-|-------------|----------0-0----0-0-|
E|-0--0--0--------------|-2-----------|---------------------|-2-----------|--------------2------|
   E  E  E.  S S E  S S   W             H     E  S S E  S S   W             H     E  S S E  S S

                                                    D/F#
   E                      C    C                A   |  A     E                      C
e|-0-----0--0-0-0--0-0-0--0--|-0--0-0-0-----0-0-0-0-2--0-0-|-0-----0--0-0-0--0-0-0--0--|
B|-0-----0--0-0-0--0-0-0--1--|-1--1-1-1-----1-1-2-2-3--2-2-|-0-----0--0-0-0--0-0-0--1--|
G|-1-----1--1-1-1--1-1-1--0--|-0--0-0-0--0--0-0-2-2-2--2-2-|-1-----1--1-1-1--1-1-1--0--|
D|-2--2--2--2-2-2--2-2-2--2--|-2--2-2-2--2--2-2-2-2-0--2-2-|-2--2--2--2-2-2--2-2-2--2--|
A|-2--2--2--2-2-2--2-2-2--3--|-3--3-3-3--3--3-3-0-0----0-0-|-2--2--2--2-2-2--2-2-2--3--|
E|-0--0--0--0-0-0--0-0-0-----|----------------------2------|-0--0--0--0-0-0--0-0-0-----|
   E  E  E  S S E  S S E  E    E  S S E  E  S S S S E  S S   E  E  E  S S E  S S E  E  

                        D/F#                                                      D/F#
   C                A   |  A     E                      C    C            A       |  A
e|-0--0-0-0-----0-0-0-0-2--0-0-|-0-----0--0-0-0--0-0-0--0--|-0--0-0-0-----0-0-0-0-2--0-0-|
B|-1--1-1-1-----1-1-2-2-3--2-2-|-0-----0--0-0-0--0-0-0--1--|-1--1-1-1-----1-1-2-2-3--2-2-|
G|-0--0-0-0--0--0-0-2-2-2--2-2-|-1-----1--1-1-1--1-1-1--0--|-0--0-0-0--0--0-0-2-2-2--2-2-|
D|-2--2-2-2--2--2-2-2-2-0--2-2-|-2--2--2--2-2-2--2-2-2--2--|-2--2-2-2--2--2-2-2-2-0--2-2-|
A|-3--3-3-3--3--3-3-0-0----0-0-|-2--2--2--2-2-2--2-2-2--3--|-3--3-3-3--3--3-3-0-0----0-0-|
E|----------------------2------|-0--0--0--0-0-0--0-0-0-----|----------------------2------|
   E  S S E  E  S S S S E  S S   E  E  E  S S E  S S E  E    E  S S E  E  S S S S E  S S

E           C       Cmaj7                  
Blow up the outside

E           C       Cmaj7                  
Blow up the outside

E           C       Cmaj7                  
Blow up the outside

E           C       Cmaj7                  
Blow up the outside


[Outro]

   E             C                   E                 C                 
e|-0--0--0--0-0--0---0---0---0--0-|--0---0---0---0--0--0---0---0---0--0-|
B|-0--0--0--0-0--0---0---0---0--0-|--0---0---0---0--0--0---0---0---0--0-|
G|-1--1--1--1-1/-9---9---9---9--9/|-13--13--13--13-13\-9---9---9---9--9/|
D|-2--2--2--2-2/10--10--10--10-10/|-14--14--14--14-14\10--10--10--10-10/|
A|-2--2--2--2-2/10--10--10--10-10/|-14--14--14--14-14\10--10--10--10-10/|
E|-0--0--0--0-0--0---0---0---0--0-|--0---0---0---0--0--0---0---0---0--0-|
   E  E  E  S S  E   E   E   S  S    E   E   E   S  S  E   E   E   S  S

    E                 C                  E                 C
e|--0---0---0---0--0--0---0---0---0--0-|--0---0---0---0--0--0---0---0---0--0-|
B|--0---0---0---0--0--0---0---0---0--0-|--0---0---0---0--0--0---0---0---0--0-|
G|/13--13--13--13-13\-9---9---9---9--9/|-13--13--13--13-13\-9---9---9---9--9/|
D|/14--14--14--14-14\10--10--10--10-10/|-14--14--14--14-14\10--10--10--10-10/|
A|/14--14--14--14-14\10--10--10--10-10/|-14--14--14--14-14\10--10--10--10-10/|
E|--0---0---0---0--0--0---0---0---0--0-|--0---0---0---0--0--0---0---0---0--0-|
    E   E   E   S  S  E   E   E   S  S    E   E   E   S  S  E   E   E   S  S

       E                 C                   E                 C                  
e||----0---0---0---0--0--0---0---0---0--0-|--0---0---0---0--0--0---0---0---0--0---|| (Repeat till fade out)
B||o---0---0---0---0--0--0---0---0---0--0-|--0---0---0---0--0--0---0---0---0--0--o||
G||--/13--13--13--13-13/-9---9---9---9--9/|-13--13--13--13-13\-9---9---9---9--9/--||
D||--/14--14--14--14-14/10--10--10--10-10/|-14--14--14--14-14\10--10--10--10-10/--||
A||o-/14--14--14--14-14/10--10--10--10-10/|-14--14--14--14-14\10--10--10--10-10/-o||
E||----0---0---0---0--0--0---0---0---0--0-|--0---0---0---0--0--0---0---0---0--0---||
       E   E   E   S  S  E   E   E   S  S    E   E   E   S  S  E   E   E   S  S
            
Submit corrections


        Blow Up The Outside World Acoustic Live lessons Hard to play? Try these video lessons and learn fast Blow Up The Outside World Acoustic Live lessons
        
↑ Back to top | Tablatures and chords for acoustic guitar and electric guitar, ukulele, drums are parodies/interpretations of the original songs. You may use it for private study, scholarship, research or language learning purposes only