Home » C » Chris Brown »

Chris Brown - Autumn Leaves Tabs

Artists:  A B C D E F G H I J K L M N O P Q R S T U V W X Y Z # 

Autumn Leaves Tabs

(ver. 1) Click to play this song!
Chris Brown
 Rating:
4.2/5 (30 votes)
                [Intro]

Play this when the songs starts.

e|------1-------------5--12--7h8p7--5~~--5p3-5p3------------------------------|
B|------1------3/s6-----------------------------5p3--------5s6-5p3------------|
G|------2------------------------------------------5p4------------5-----------|
D|-----3----------------------------------------------7p5----------7p5h7~~\---| x2
A|---3------------------------------------------------------------------------|
E|-1--------------------------------------------------------------------------|

Then, play an Am.

e|------1---------------------------------------------------------------------|
B|------1---------------------------------------------------------------------|
G|-----2----------------------------------------------------------------------|
D|---2------------------------------------------------------------------------|
A|-0--------------------------------------------------------------------------|
E|----------------------------------------------------------------------------|

Finally, play and Am then a G.

e|------1------------3--------------------------------------------------------|
B|------1------------3--------------------------------------------------------|
G|-----2-------------0--------------------------------------------------------|
D|---2-------------0----------------------------------------------------------|
A|-0-------------2------------------------------------------------------------|
E|-------------3--------------------------------------------------------------|


[Verse]

When the lyrics start, play this: an F#, a C, another F#, an Am and finally a G.

e|-------1------------0------------1------------0------------3----------------|
B|-------1------------1------------1------------1------------3----------------|
G|-------2----------0--------------2----------2--------------0----------------|
D|-----3----------2--------------3----------2--------------0------------------|
A|---3----------3--------------3----------0--------------2--------------------|
E|-1-------------------------1-------------------------3----------------------|

[Chorus]

The chorus is basically the same as the verse.

e|-------1------------0------------1------------0------------3----------------|
B|-------1------------1------------1------------1------------3----------------|
G|-------2----------0--------------2----------2--------------0----------------|
D|-----3----------2--------------3----------2--------------0------------------|
A|---3----------3--------------3----------0--------------2--------------------|
E|-1-------------------------1-------------------------3----------------------|

[Verse]

Play the same as the verse during Kendrick Lamar's part.

e|-------1------------0------------1------------0------------3----------------|
B|-------1------------1------------1------------1------------3----------------|
G|-------2----------0--------------2----------2--------------0----------------|
D|-----3----------2--------------3----------2--------------0------------------|
A|---3----------3--------------3----------0--------------2--------------------|
E|-1-------------------------1-------------------------3----------------------|            
Submit corrections

↑ Back to top | Tablatures and chords for acoustic guitar and electric guitar, ukulele, drums are parodies/interpretations of the original songs. You may use it for private study, scholarship, research or language learning purposes only