» » »

Chicago - Street Player Tabs

Artists:  A B C D E F G H I J K L M N O P Q R S T U V W X Y Z # 

Street Player Tabs

(ver. 1) Click to play this song!
Chicago
 Rating:
4/5 (4 votes)
    Street Player lessons Tabs too difficult? Try these video lessons and learn fast
                (Intro)
Sorry, but this is a work in progress... I don't know if I'm able to edit these as I 
more, but I'm making this also as I come up with what sounds right. Of course this is not 
on a guitar, so its what sounds best to me.


Chicago - Street Player (Acoustic)(Standard Tuning)

----5---3---1---0-------3---0--1-----------6/7-5--|
--------------------3-------------5--1------------|
---------------------------------------2----------|
--------------------------------------------------|
--------------------------------------------------|
--------------------------------------------------|


----5---3---1---0-------3---0--1-----------------|
--------------------3-------------5--1--3*-------|
-------------------------------------------------|
-------------------------------------------------|
-------------------------------------------------|
-------------------------------------------------|

-------------------------------------|
----3-----6--5--1*-----0--1--3-11/10-|
-------2-----------------------------|
-------------------------------------|
-------------------------------------|
-------------------------------------|

... to be continuted...
            
Submit corrections

↑ Back to top | Tablatures and chords for acoustic guitar and electric guitar, ukulele, drums are parodies/interpretations of the original songs. You may use it for private study, scholarship, research or language learning purposes only