Home » C » Cher »

Cher - The Shoop Shoop Song Bass

Artists:  A B C D E F G H I J K L M N O P Q R S T U V W X Y Z # 

The Shoop Shoop Song Bass

(ver. 1) Click to play this song!
Cher
INTRO
|--------------------------------|--------------------------------|
|--------------------------------|--------------------------------|
|--------------------------------|--------------------------------|
|3-----------------------3-------|1-----------------------1-------|

|--------------------------------|--------------------------------|
|--------------------------------|--------------------------------|
|--------------------------------|------------------------0---2---|
|1-----------------------3-------|3-------------------3-----------|


VERSE
|--------------------------------|--------------------------------|
|0-----------0-------------------|0-----------0-------------------|
|------------------------0-------|------------------------0-------|
|----------------3-----------3---|----------------3---3-------3---|

|--------------------------------|--------------------------------|
|0-----------0-------------------|0-----------0-------------------|
|------------------------0-------|------------------------0---2---|
|----------------3---3-------3---|----------------3---3-----------|

I CHORUS    
|--------------------------------|--------------------------------|
|--------------------------------|--------------------------------|
|3-----------3---0-----------0---|------------------------0---2---|
|--------------------------------|1-----------1---3---------------|
 
|--------------------------------|--------------------------------|
|--------------------------------|--------------------------------|
|3-----------3-------------------|------------------------0---2---|
|----------------1---1-------3---|----3---3---3---3---3-----------|

II CHORUS
|--------------------------------|--------------------------------|
|--------------------------------|--------------------------------|
|3-----------3---0-----------0---|------------------------0---2---|
|--------------------------------|1-----------1---3---------------|

|--------------------------------|--------------------------------|
|--------------------------------|--------------------------------|
|3-----------3-------------------|--------------------------------|
|----------------1---1-------3---|----3---3---3---3---3---3---3---|

|--------------------------------|--------------------------------|
|--------------------------------|----------------0-------1-------|
|3-----------3---------------3---|--------3-----------------------|
|----------------1---1-----------|--------------------------------|

BRIDGE
|--------------------------------|--------------------------------|
|--------------------------------|--------------------------------|
|--------------------------------|--------------------------------|
|0-----------0---0---------------|0-----------0---0-------1---3---|

|--------------------------------|--------------------------------|
|--------------------------------|--------------------------------|
|0-----------0---0---------------|0-----------0---0-------2---3---|
|--------------------------------|--------------------------------|

|--------------------------------|--------------------------------|
|0-----------0---0---------------|0-----------0---0---------------|
|--------------------------------|------------------------2---0---|
|--------------------------------|--------------------------------|

|--------------------------------|--------------------------------|
|--------------------------------|--------------------------------|
|--------------------------------|------------------------0---2---|
|3-------------------------------|--------------------3-----------|


III CHORUS
|--------------------------------|--------------------------------|
|--------------------------------|--------------------------------|
|3-----------3---0-----------0---|------------------------0---2---|
|--------------------------------|1-----------1---3---------------|

|--------------------------------|--------------------------------|
|--------------------------------|--------------------------------|
|3-----------3-------------------|--------------------------------|
|----------------1---1-------3---|----3---3---3---3---3---3---3---|

|--------------------------------|--------------------------------|
|--------------------------------|--------------------------------|
|3-----------3-------------------|--------------------------------|
|----------------1---1-------3---|----3---3---3---3---3---3---3---|

SOLO:
|--------------------------------|--------------------------------|
|0-----------0-------------------|0-----------0-------------------|
|------------------------0-------|------------------------0-------|
|----------------3-----------3---|----------------3---3-------3---|
 
|--------------------------------|--------------------------------|
|--------------------------------|--------------------------------|
|3-----------3-----------0-------|3-----------3-----------0-------|
|----------------3---3-------3---|----------------3---3-------3---|

|--------------------------------|--------------------------------|
|0-----------0-------------------|0-----------0-------------------|
|------------------------0-------|------------------------0-------|
|----------------3-----------3---|----------------3---3-------3---|

|--------------------------------|
|--------------------------------|
|3-------------------------------|
|--------------------------------|



ENDING:
||--------------------------------|--------------------------------||
||--------------------------------|--------------------------------||
||3-----------3-------------------|--------------------------------||
||----------------1---1-------3---|----3---3---3---3---3---3---3---|| - REPEATE TO END            
Submit corrections

↑ Back to top | Tablatures and chords for acoustic guitar and electric guitar, ukulele, drums are parodies/interpretations of the original songs. You may use it for private study, scholarship, research or language learning purposes only