Home » C » Cher »

Cher - If I Could Turn Back Time Tabs

Artists:  A B C D E F G H I J K L M N O P Q R S T U V W X Y Z # 

If I Could Turn Back Time Tabs

(ver. 1) Click to play this song!
Cher
[Intro]

     pm                 Bsus B
e|--------------------------------------------------------------------------|
B|------------------------5-4-------------------------5-4-------------------|
G|------------------------4-4-------------------------4-4-------------------|
D|-4----------------------4-4---4---------------------4-4-------------------|
A|-2--2-2-2-2-2-2-2-2-2---------2--2-2-2-2-2-2-2-2-2------------------------|
E|--------------------------------------------------------------------------|
   E   pm    Esus     C#m   F#
e|----------------------4---2-----------------------------------------------|
B|-9----------10-9------5---2-----------------------------------------------|
G|-9----------9--9------6---3-----------------------------------------------|
D|-9----------9--9------6---4-----------------------------------------------|
A|-7--7-7-7---7--7------4---4-----------------------------------------------|
E|--------------------------2-----------------------------------------------|


[Chorus]

           B           Bsus B           
If I could turn back time 
             E        Esus E
If I could find a way
         C#m                                      
I'd take back those words that hurt you 
      F#
And you'd stay

[Verse]

e|-------------------------------------------------------------------------|
B|-11-11-11---12-12---9-9-9---11-11-11-------------------------------------|
G|-11-11-11---11-11---9-9-9---11-11-11-------------------------------------|
D|-11-11-11---11-11---9-9-9---11-11-11-------------------------------------|
A|-9--9--9--------------------9--9--9--------------------------------------|
E|-------------------------------------------------------------------------|


F#           B            E        F#                           
I don't know why I did the things I did 
F#           B            E         F#
I don't know why I said the things I said
F#            B             E      F#                 
Love's like a knife it can cut deep inside 
F#            B             E       F#
Words are like weapons, they wound sometimes

e|--------------------------------------------------------------------------|
B|-9--4--2------------------------------------------------------------------|
G|-9--4--3------------------------------------------------------------------|
D|-9--6--4------------------------------------------------------------------|
A|-7--6--4------------------------------------------------------------------|
E|-0--4--2------------------------------------------------------------------|

E G#m F#   

[Pre-Chorus]   
                          E   G#m  F#
I didn't really mean to hurt you 
                         E   
I didn't wanna see you go
E                     F#
I know I made you cry, but baby...

[Chorus]
           B           Bsus B          
If I could turn back time 
            E        Esus E
If I could find a way
         C#m                                          
I'd take back those words that had hurt you 
            F#
And you'd stay

           B            Bsus B              
If I could reach the stars 
               E        Esus E
I'd give them all to you
           C#m                                        
Then you'd love me, love me, love me
  F#
Like you used to do
B                 E         
If I could turn back time

[Verse]

F#           B            E        F#                          
My world was shattered I was torn apart 
F#           B            E        F#                          
Like someone took a knife and drove it deep in my heart
F#           B            E        F#                           
When you walked out that door I swore that I didn't care 
F#           B            E        F#
But I lost everything darling then and there

E G#m F#   

[Pre-Chorus]
   
                          E   G#m  F#
I didn't really mean to hurt you 
                         E   
I didn't wanna see you go
E                     F#
I know I made you cry, but baby...
                                E  G#m F#
Too strong to tell you I was sorry 
                            E                    
Too proud to tell you I was wrong
           C#m                   F#
And I know that I was blind, and darling

[Chorus]

           B           Bsus B          E       Esus E
If I could turn back time If I could find a way
         C#m                                          
I'd take back those words that had hurt you 
            F#
And you'd stay


F#                B       E                 F#
If I could turn back time (If I could turn back time)
          E  F#
Oh, baby  

E  G#m  F#

[Pre-Chorus]
                               E G#m F#
I didn't really mean to hurt you 
                       E
I didn't wanna see you go
           C#m
I know I made you cry, but oh

[Chorus]
          B             Bsus B            
If I could turn back time 
   E                 Esus E
If I could find a way
         C#m                           
I'd take back those words that hurt you
           D           Dsus D               
If I could reach the stars 
               G
I'd give them all to you
           Em                                 A
Then you'd love me, love me, like you used to do
           D                         G          Em  A 
If I could turn back time If I could find a way
           D
If I could turn back time



            
Submit corrections

↑ Back to top | Tablatures and chords for acoustic guitar and electric guitar, ukulele, drums are parodies/interpretations of the original songs. You may use it for private study, scholarship, research or language learning purposes only