Home » C » Cher »

Cher - Beat Goes On Bass

Artists:  A B C D E F G H I J K L M N O P Q R S T U V W X Y Z # 

Beat Goes On Bass

(ver. 1) Click to play this song!
Cher

G|------------------------------------------------|
D|------------------------------------------------|
A|-3-----1-----------1--3-----1-----1--------1----|
E|-------------3-----------------------3----------|

G|------------------------------------------------|
D|------------------------------------------------|
A|-3-----1-----------1--3-----1-----1--------1----|
E|-------------3-----------------------3----------|

G|------------------------------------------------|
D|------------------------------------------------|
A|-3-----1-----------1--3-----1-----1--------1----|
E|-------------3-----------------------3----------|
            
Submit corrections

↑ Back to top | Tablatures and chords for acoustic guitar and electric guitar, ukulele, drums are parodies/interpretations of the original songs. You may use it for private study, scholarship, research or language learning purposes only