Home » C » Cher »

Cher - All Or Nothing Bass

Artists:  A B C D E F G H I J K L M N O P Q R S T U V W X Y Z # 

All Or Nothing Bass

(ver. 1) Click to play this song!
Cher
Intro: (NO BASS)

Verse 1:                                  (Play This Bit x2)
G|--------------------------------------------------|
D|--------------------------------------------------|
A|-5--5--5--5--5--5--5--5----5--5--5--5--5--5--5--5-|
E|--------------------------------------------------|

G|--------------------------------------------------|
D|--------------------------------------------------|
A|--------------------------------------------------|
E|-6--6--6--6--6--6--6--6----6--6--6--6--6--6--6--6-|

Chorus 1:                                   (Play This Bit x2)
G|--------------------------------------------------|
D|--------------------------------------------------|
A|-8--8--8--8---------------------------------------|
E|-------------8--8--8--8----6--6--6--6--6--6--6--6-|

G|--------------------------------------------------------|
D|--------------------------------------------------------|
A|--------------------------------------------------------|
E|-10--10--10--10----8--8--8--8----6--6--6--6--6--6--6--6-|

G|--------------------------------------------------|
D|--------------------------------------------------|
A|-8--8--8--8---------------------------------------|
E|-------------8--8--8--8----6--6--6--6--6--6--6--6-|

Interlude:
G|--------------------------------------------------|
D|--------------------------------------------------|
A|-5--5--5--5--5--5--5--5----5--5--5--5--5--5--5--5-|
E|--------------------------------------------------|

Verse 2:                                  (Play This Bit x2)
G|--------------------------------------------------|
D|--------------------------------------------------|
A|-5--5--5--5--5--5--5--5----5--5--5--5--5--5--5--5-|
E|--------------------------------------------------|

G|--------------------------------------------------|
D|--------------------------------------------------|
A|--------------------------------------------------|
E|-6--6--6--6--6--6--6--6----6--6--6--6--6--6--6--6-|

Chorus 1:                                   (Play This Bit x2)
G|--------------------------------------------------|
D|--------------------------------------------------|
A|-8--8--8--8---------------------------------------|
E|-------------8--8--8--8----6--6--6--6--6--6--6--6-|

G|--------------------------------------------------------|
D|--------------------------------------------------------|
A|--------------------------------------------------------|
E|-10--10--10--10----8--8--8--8----6--6--6--6--6--6--6--6-|

G|--------------------------------------------------|
D|--------------------------------------------------|
A|-8--8--8--8---------------------------------------|
E|-------------8--8--8--8----6--6--6--6--6--6--6--6-|

Interlude:
G|--------------------------------------------------|
D|--------------------------------------------------|
A|-5--5--5--5--5--5--5--5----5--5--5--5--5--5--5--5-|
E|--------------------------------------------------|

                                          (Quietly Play This Bit x2)
G|--------------------------------------------------|
D|--------------------------------------------------|
A|-5--5--5--5--5--5--5--5----5--5--5--5--5--5--5--5-|
E|--------------------------------------------------|

G|--------------------------------------------------|
D|--------------------------------------------------|
A|--------------------------------------------------|
E|-6--6--6--6--6--6--6--6----6--6--6--6--6--6--6--6-|

Bridge:                                               (Break)
G|-------------------------------------------------------|
D|-------------------------------------------------------|
A|-----------------------------------------------------8-|
E|-6--6--6--6--6--6--6--6----6--6--6--6----8--8--8--8----|

   (Play This Bit Quietly) 
G|------------10---------------------------------|
D|-10----8----------10----8--8--8--8--8--8--8--8-|
A|-----------------------------------------------|
E|-----------------------------------------------|

Chorus 2:                                   (Play This Bit x2)
G|--------------------------------------------------|
D|--------------------------------------------------|
A|-8--8--8--8---------------------------------------|
E|-------------8--8--8--8----6--6--6--6--6--6--6--6-|

G|--------------------------------------------------------|
D|--------------------------------------------------------|
A|--------------------------------------------------------|
E|-10--10--10--10----8--8--8--8----6--6--6--6--6--6--6--6-|

Outro:   (Repeat Outro To Fade/End)
G|--------------------------------------------------|
D|--------------------------------------------------|
A|-8--8--8--8---------------------------------------|
E|-------------8--8--8--8----6--6--6--6--6--6--6--6-|

            
Submit corrections

↑ Back to top | Tablatures and chords for acoustic guitar and electric guitar, ukulele, drums are parodies/interpretations of the original songs. You may use it for private study, scholarship, research or language learning purposes only