» » »

Cheap Trick - Cleveland Rocks Tabs

Artists:  A B C D E F G H I J K L M N O P Q R S T U V W X Y Z # 

Cleveland Rocks Tabs

(ver. 1) Click to play this song!
Cheap Trick
 Rating:
4.4/5 (7 votes)


 Cleveland Rocks lessons Tabs too difficult? Try these video lessons and learn fast
 
                
CLEVELAND ROCKS (DREW CAREY THEME)



*****************************************************

INTRO

    G# C# G#    G# C# G#    G# C# G#
e----------------------------------------
b----------------------------------------
g----------------------------------------
D--6-6-6-6~----6-6-6-6~----6-6-6-6~------
A--6-6-4-6~----6-6-4-6~----6-6-4-6~------
E--4-4-4-4~----4-4-4-4~----4-4-4-4~------

*********************************************************

WAILING

       E         C#	    G#
e--0-0-0-0-------------------------------
b--0-0-0-0-------------------------------
g--1-1-1-1-------------------------------
D--2-2-2-2----6-6-6-6----6-6-6-6---------    x3
A--2-2-2-2----4-4-4-4----6-6-6-6---------
E--0-0-0-0----4-4-4-4----4-4-4-4---------

***********************************************************

VERSE

e---------------------------------------------------------
b--6-xx-6-xx-6-x-6-xx-6-xx-6-x-6-xx-6-xx-6-x-6-xx-6-xx-6-x
g--8-xx-8-xx-8-x-7-xx-7-xx-7-x-6-xx-6-xx-6-x-5-xx-5-xx-5-x
d---------------------------------------------------------
a---------------------------------------------------------
E---------------------------------------------------------

***********************************************************

BRIDGE

    C#  (ska)     G#  (ska)     C#  (ska)
e----------------------------------------
b----------------------------------------
g----------------------------------------
D--6---6-6-6-----6---6-6-6-----6---6-6-6-
A--4---4-4-4-----6---6-6-6-----4---4-4-4-
E--4---4-4-4-----4---4-4-4-----4---4-4-4-

***********************************************************

CHORUS

           G#              A#
e----------------------------------------
b----------------------------------------
g----------------------------------------
D--6---6-6-6---6-6----8-8-8-8-8-8--------    Rhythm of G# for all of Chorus
A--6---6-6-6---6-6----8-8-8-8-8-8--------
E--4---4-4-4---4-4----6-6-6-6-6-6--------
    1 + 2 + 3 + 4 +

										 x2
          C#             G#
e----------------------------------------
b----------------------------------------
g----------------------------------------
D--6---6-6-6---6-6----6-6-6-6-6-6--------    Rhythm of G# for all of Chorus
A--4---4-4-4---4-4----6-6-6-6-6-6--------
E--4---4-4-4---4-4----4-4-4-4-4-4--------

**************************************************************

Solo

     Eb      Db    B         B    C   C#
e----------------------------------------
b----------------------------------------
g--8~--8-8--6-6--4-4~------4-4--5-5--6-6~
D--8~--8-8--6-6--4-4~------4-4--5-5--6-6~
A--6~--6-6--4-4--2-2~------2-2--3-3--4-4~
E--6~--6-6--4-4--2-2~------2-2--3-3--4-4~

    F#    	          G#
e----------------------------------------
a----------------------------------------
d----------------------------------------
g--4~----4-4-4~----------6x--------------
b--4~----4-4-4~----------6x--------------
E--2~----2-2-2~----------4x--------------

***************************************************************

Song

Intro
Wailing
Verse
Bridge
Chorus
Verse
Bridge
Chorus
Solo

Chorus (go through 1 extra time!)



Key
~ = let it RING
x = STOP string



For easy playing, get rhythm of the song in your head before you play!  
Enjoy!
            
Submit corrections



        Cleveland Rocks lessons Hard to play? Try these video lessons and learn fast Cleveland Rocks lessons
        
↑ Back to top | Tablatures and chords for acoustic guitar and electric guitar, ukulele, drums are parodies/interpretations of the original songs. You may use it for private study, scholarship, research or language learning purposes only