» » »

Charlie Daniels - Simple Man Intro Record Tabs

Artists:  A B C D E F G H I J K L M N O P Q R S T U V W X Y Z # 

Simple Man Intro Record Tabs

(ver. 1) Click to play this song!
Charlie Daniels
 Rating:
4/5 (4 votes)

 Simple Man Intro Record lessons Tabs too difficult? Try these video lessons and learn fast
 
                   

   Simple man intro 
   Gtr 1 elec  
  
   T------------------------------------------------------------------------------------------------------
   -------------------------------------------------------------------------------------------------------
   A------------------------------------------------------------------------------------------------------
   -----0h2----5p2----------------0h2------5p2------------------------------0h2-----5p2---------------0h2-
   B-----------------5p2----------------------------5p2----------2-----2-------------------5p2------------ 
   --0------0------0------3b---0--------0--------0-------3b--0-----0-----0-------0-------0------3b-0------
                            bends are 1/4 
   -------------------------------------------------------------------------------------------------------
   -------------------------------------------------------------------------------------------------------
   -------------------------------------------------------------------------------------------------------
   ----5p2--------------------------------0h2-------5p2------------------ 0h2-----5p2---------------------
   ----------5p2-----------2-----2------------------------5p2---------------------------5p2--------2----2-
   -0------0------3b---0------0------0----------0--------0------3b----0--------0-------0-----3b--0----0---
  
   Gtr2 (dobro) fingers clean tone and slide
   
   -------------------------------------------2/3---0---------0--0---------------------2/3----0---
   ----------------------------------0h3--5p0------------0h3-----------------0h3---5p0------------
   -----------------------------------------------------------------------------------------------
   -----------------------------------------------------------------5\4--2-----------------------2
   -----------------------------------------------------------------------------------------------
   -----------------------------------------------------------------------------------------------


                                                                I ain't  noth-ing but a sim-ple man_  They
----------------------------------------------------------0----!-0----------0-------------0-----0--------0
----------------------------------------------------------0---0!------0---------------0------0------0-----
---------------------------------------------------------------!------------------------------------------
----0h2----5p2----------------0h2----5p2-----------------------!--------------------------------------2---
-----------------5p2------------------------5p2----------------!------------------------------------------
0--------0-----0------3b--0--------0------0------3b--0---------!------------------------------------------

    Without the 3rd Gtr and repeat of dobro gtr 2
            
Submit corrections


        Simple Man Intro Record lessons Hard to play? Try these video lessons and learn fast Simple Man Intro Record lessons
        
↑ Back to top | Tablatures and chords for acoustic guitar and electric guitar, ukulele, drums are parodies/interpretations of the original songs. You may use it for private study, scholarship, research or language learning purposes only