» » »

Charlie Daniels - Drinkin' My Baby Goodbye (fiddle Intro For Tabs

Artists:  A B C D E F G H I J K L M N O P Q R S T U V W X Y Z # 

Drinkin' My Baby Goodbye (fiddle Intro For Tabs

(ver. 1) Click to play this song!
Charlie Daniels
 Rating:
4/5 (4 votes)

 Drinkin' My Baby Goodbye (fiddle Intro For lessons Tabs too difficult? Try these video lessons and learn fast
 
                (Guitar)
Drinkin’ My Baby Goodbye – Charlie Daniels Band

Fiddle Instrumental tabbed for Guitar

   AAAAAA  C#D    C#D     F#E D B A  C#D       C#D    F#E D B A C C# C#C#D C#B A
e----------------------|--2-0---------------|---------2-0-------------------------|
B----------2/3~~--2/3~~|------3-0----2/3~~--|--2/3~~------3-0---1/2--2-2-3-2-0----|
G--222222--------------|----------2---------|-----------------2----------------2--|
D----------------------|--------------------|-------------------------------------|
A----------------------|--------------------|-------------------------------------|
E----------------------|--------------------|-------------------------------------|
   C C# C#C# C C# C#C#    C C# C#C#D C#B A     C C# C#C#D C#B A F#
e----------------------|--------------------|------------------------|
B--1/2--2-2--1/2--2-2--|--1/2--2-2-3-2-0----|--1/2--2-2-3-2-0--------|
G----------------------|-----------------2--|-----------------2------|
D----------------------|--------------------|-------------------4~~--|
A----------------------|--------------------|------------------------|
E----------------------|--------------------|------------------------|
   A B A   C#D    C#D     F#E D B A  C#D       C#D      D C#B G F#G 
e----------------------|--2-0---------------|-------------------2/3~~|
B----------2/3~~--2/3~~|------3-0----2/3~~--|--2/3~~----3-2-0--------|
G--2-4-2---------------|----------2---------|-----------------0------|
D----------------------|--------------------|------------------------|
A----------------------|--------------------|------------------------|
E----------------------|--------------------|------------------------|
   A B A C C# C#C# C C# C#C#    C C# C#C#D C#B A     A B A  F# D  E
e----------------------------|--------------------|------------------|
B--------1/2--2-2--1/2--2-2--|--1/2--2-2-3-2-0----|------------------|
G--2-4-2---------------------|-----------------2--|--2-4-2-----------|
D----------------------------|--------------------|---------4--0--2--|
A----------------------------|--------------------|------------------|
E----------------------------|--------------------|------------------|
   C#D  D D  C#D  D D     C#D  D F#E D B A     C#D  D D  C#D D B F E D B A G F#E
e----------------------|---------2-0--------|--------------------2-0--------------|
B----------------------|-------3-----3-0----|----------------3-0-----3-0----------|
G----------------------|-----------------2--|----------------------------2-0------|
D----------------------|--------------------|--------------------------------4-2--|
A--4/5--5-5--4/5--5-5--|--4/5---------------|--4/5--5-5--4/5----------------------|
E----------------------|--------------------|-------------------------------------|
            
Submit corrections


        Drinkin' My Baby Goodbye (fiddle Intro For lessons Hard to play? Try these video lessons and learn fast Drinkin' My Baby Goodbye (fiddle Intro For lessons
        
↑ Back to top | Tablatures and chords for acoustic guitar and electric guitar, ukulele, drums are parodies/interpretations of the original songs. You may use it for private study, scholarship, research or language learning purposes only