Home » C » Charles Ray »

Charles Ray - Hit The Road Jack Bass

Artists:  A B C D E F G H I J K L M N O P Q R S T U V W X Y Z # 

Hit The Road Jack Bass
Version #1
Charles Ray


Copy URL
ray charles_hit_the_road_jack

TablEdited by Jan Bjorklund   
You are welcome to request for tabs!
Fingering and positions as suggested by TablEdit, please use common sense.


TablEdited by Jan Bjorklund
Tuning : E A D G 	Time Signature: 4/4

 |       |       |       |        |       |       |       |        
|1-------------------------------|--------------------------------|
|----------------4---------------|2---------------1---------------|
|--------------------------------|--------------------------------|
|--------------------------------|--------------------------------|

 |       |       |       |        |       |       |       |        
|1-------------------------------|--------------------------------|
|----------------4---------------|2---------------1---------------|
|--------------------------------|--------------------------------|
|--------------------------------|--------------------------------|

 |       |       |       |        |       |       |       |        
|1-------------------------------|------------------------0-------|
|----------------4---------------|2---------------1---------------|
|--------------------------------|--------------------------------|
|--------------------------------|--------------------------------|

 |       |       |       |        |       |       |       |        
|1-------------------------------|------------------------0-------|
|----------------4---------------|2---------------1---------------|
|--------------------------------|--------------------------------|
|--------------------------------|--------------------------------|

 |       |       |       |        |       |       |       |        
|1-------------------------------|--------------------------------|
|----------------4---------------|2---------------1-------1-------|
|--------------------------------|--------------------------------|
|--------------------------------|--------------------------------|

 |       |       |       |        |       |       |       |        
|1-------------------------------|------------------------0-------|
|----------------4---------------|2---------------1---------------|
|--------------------------------|--------------------------------|
|--------------------------------|--------------------------------|

 |       |       |       |        |       |       |       |        
|1-------------------------------|--------------------------------|
|----------------4---------------|2---------------1-------1-------|
|--------------------------------|--------------------------------|
|--------------------------------|--------------------------------|

 |       |       |       |        |       |       |       |        
|1-------------------------------|------------------------0-------|
|----------------4---------------|2---------------1---------------|
|--------------------------------|--------------------------------|
|--------------------------------|--------------------------------|

 |       |       |       |        |       |       |       |        
|1-------------------------------|------------------------0-------|
|----------------4---------------|2---------------1---------------|
|--------------------------------|--------------------------------|
|--------------------------------|--------------------------------|

 |       |       |       |        |       |       |       |        
|1-------------------------------|--------------------------------|
|----------------4---------------|2-------------------------------|
|--------------------------------|--------------------------------|
|--------------------------------|--------------------------------|

 |       |       |       |        |       |       |       |        
|1-------------------------------|------------------------0-------|
|----------------4---------------|2---------------1---------------|
|--------------------------------|--------2-----------------------|
|--------------------------------|--------------------------------|

 |       |       |       |        |       |       |       |        
|1-------------------------------|------------------------0-------|
|----------------4---------------|2---------------1---------------|
|--------------------------------|--------------------------------|
|--------------------------------|--------------------------------|

 |       |       |       |        |       |       |       |        
|1-------------------------------|------------------------0-------|
|----------------4---------------|2---------------1---------------|
|--------------------------------|--------------------------------|
|--------------------------------|--------------------------------|

 |       |       |       |        |       |       |       |        
|1-------------------------------|--------------------------------|
|----------------4---------------|2---------------1-------1-------|
|--------------------------------|--------------------------------|
|--------------------------------|--------------------------------|

 |       |       |       |        |       |       |       |        
|1-------------------------------|------------------------0-------|
|----------------4---------------|2---------------1---------------|
|--------------------------------|--------------------------------|
|--------------------------------|--------------------------------|

 |       |       |       |        |       |       |       |        
|1-------------------------------|------------------------0-------|
|----------------4---------------|2---------------1---------------|
|--------------------------------|--------------------------------|
|--------------------------------|--------------------------------|

 |       |       |       |        |       |       |       |        
|1-------------------------------|--------------------------------|
|----------------4---------------|2---------------1-------1-------|
|--------------------------------|--------------------------------|
|--------------------------------|--------------------------------|

 |       |       |       |        |       |       |       |        
|1-------------------------------|--------------------------------|
|----------------4---------------|2---------------1-------1-------|
|--------------------------------|--------2-----------------------|
|--------------------------------|--------------------------------|

 |       |       |       |        |       |       |       |        
|1-------------------------------|--------------------------------|
|----------------4---------------|2---------------1---------------|
|--------------------------------|--------2-----------------------|
|--------------------------------|--------------------------------|

 |       |       |       |        |       |       |       |        
|--------------------------------|1-------------------------------|
|2---------------1---------------|----------------4---------------|
|--------------------------------|--------------------------------|
|--------------------------------|--------------------------------|

 |       |       |       |        |       |       |       |        
|------------------------0-------|1-------------------------------|
|2---------------1---------------|----------------4---------------|
|--------------------------------|--------------------------------|
|--------------------------------|--------------------------------|

 |       |       |       |        |       |       |       |        
|------------------------0-------|1-------------------------------|
|2---------------1---------------|----------------4---------------|
|--------------------------------|--------------------------------|
|--------------------------------|--------------------------------|

 |       |       |       |        |       |       |       |        
|--------------------------------|--------------------------------|
|2---------------1---------------|--------------------------------|
|--------------------------------|--------------------------------|
|--------------------------------|--------------------------------|

 |       |       |       |        |       |       |       |        
|--------------------------------|--------------------------------|
|--------------------------------|----------------4---------------|
|--------------------------------|--------------------------------|
|--------------------------------|--------------------------------|

 |       |       |       |        |       |       |       |        
|------------------------0-------|1-------------------------------|
|2---------------1---------------|----------------4---------------|
|--------------------------------|--------------------------------|
|--------------------------------|--------------------------------|

 |       |       |       |        |       |       |       |        
|------------------------0-------|1-------------------------------|
|2---------------1---------------|----------------4---------------|
|--------------------------------|--------------------------------|
|--------------------------------|--------------------------------|

 |       |       |       |        |       |       |       |        
|------------------------0-------|1-------------------------------|
|2---------------1---------------|----------------4---------------|
|--------2-----------------------|--------------------------------|
|--------------------------------|--------------------------------|

 |       |       |       |        |       |       |       |        
|--------------------------------|1-------------------------------|
|2---------------1---------------|----------------4---------------|
|--------------------------------|--------------------------------|
|--------------------------------|--------------------------------|

 |       |       |       |        |       |       |       |        
|--------------------------------|1-------------------------------|
|2---------------1---------------|----------------4---------------|
|--------------------------------|--------------------------------|
|--------------------------------|--------------------------------|

 |       |       |       |        |       |       |       |        
|--------------------------------|1-------------------------------|
|2-------------------------------|----------------4---------------|
|--------------------------------|--------------------------------|
|--------------------------------|--------------------------------|

 |       |       |       |        |       |       |       |        
|------------------------0-------|--------------------------------|
|2---------------1---------------|2---------------1-------1-------|
|--------2-----------------------|--------------------------------|
|--------------------------------|--------------------------------|

 |       |       |       |        |       |       |       |        
|1-------------------------------|--------------------------------|
|----------------4---------------|2---------------1-------1-------|
|--------------------------------|--------------------------------|
|--------------------------------|--------------------------------|

 |       |       |       |        |       |       |       |        
|1-------------------------------|--------------------------------|
|----------------4---------------|2---------------1-------1-------|
|--------------------------------|--------------------------------|
|--------------------------------|--------------------------------|

 |       |       |       |        |       |       |       |        
|--------------------------------|--------------------------------|
|2---------------1-------1-------|2---------------1-------1-------|
|--------------------------------|--------------------------------|
|--------------------------------|--------------------------------|

 |       |       |       |        |       |       |       |        
|--------------------------------|--------------------------------|
|2---------------1-------1-------|--------------------------------|
|--------------------------------|--------------------------------|
|--------------------------------|--------------------------------|
            
Submit corrections

↑ Back to top | Tablatures and chords for acoustic guitar and electric guitar, ukulele, drums are parodies/interpretations of the original songs. You may use it for private study, scholarship, research or language learning purposes only