» » »

Celtic Frost - The Hearth Beneath Bass

Artists:  A B C D E F G H I J K L M N O P Q R S T U V W X Y Z # 

The Hearth Beneath Bass

(ver. 1) Click to play this song!
Celtic Frost
 Rating:
4.3/5 (13 votes)

 The Hearth Beneath lessons Tabs too difficult? Try these video lessons and learn fast
 
                Intro :
G|---------------------------|
D|---------------------------|
A|---------------------------|
E|--0-0-0-0-0-0-0-0-0-0-0-0--|

UGH
G|------------------------------------------------------|
D|------------------------------------------------------| x4
A|------------------------------------------------------|
E|--0--0-0-0-0-0-0--1/2--3/4--6--5-5-5-5-5-5--5\4--4\3--|

G|-------------------------------------------|
D|-------------------------------------------|
A|-------------------------------------------|
E|--5--0-0-0--4--0-0--3--0-0-0-0---2/3--2/3--|

G|----------------------------------------|
D|----------------------------------------|
A|----------------------------------------|
E|--5--0-0-0--5--0-0--3--0-0-0-0---3-3-3--|

G|-------------------------------------------|
D|-------------------------------------------|
A|-------------------------------------------|
E|--5--0-0-0--4--0-0--3--0-0-0-0---2/3--2/3--|

G|-------------------------------------|
D|-------------------------------------|
A|-------------------------------------|
E|--5--0-0-0--5--0-0--3--0-0-0-0---3~--|

Verse : (x5)
G|-------------------------------------------|
D|-------------------------------------------|
A|-------------------------------------------|
E|--5--0-0-0--4--0-0--3--0-0-0-0---2/3--2/3--|

G|-------------------------------------|
D|-------------------------------------|
A|-------------------------------------|
E|--5--0-0-0--5--0-0--3--0-0-0-0---3~--|

Chorus : (x2)
G|---------------------------------|
D|---------------------------------|
A|---------------------------------|
E|--4-4-4-4-4-4-4--5-5-5--6-6-6-6--|

G|---------------------------------|
D|---------------------------------|
A|---------------------------------|
E|--4-4-4-4-4-4-4--5-5-5--7-7-7-7--|

Interlude : (x2)
G|-----------------------------------|
D|-----------------------------------|
A|-----------------------------------|
E|--0--4--5--4---0--4--3~---3--2--1--|

Chorus : (x2)
G|---------------------------------|
D|---------------------------------|
A|---------------------------------|
E|--4-4-4-4-4-4-4--5-5-5--6-6-6-6--|

G|---------------------------------|
D|---------------------------------|
A|---------------------------------|
E|--4-4-4-4-4-4-4--5-5-5--7-7-7-7--|

Interlude : (x2)
G|-----------------------------------|
D|-----------------------------------|
A|-----------------------------------|
E|--0--4--5--4---0--4--3~---3--2--1--|

Solo : (x2)
G|-----------------------------------------------|
D|-----------------------------------------------|
A|-----------------------------------------------|
E|--0--0-0-0-0-0-0-0-0--3--0-0-0-0-0-2--0-0-0-0--|

G|---------------------------------------------|
D|---------------------------------------------|
A|----------------------2--3-----4--5---5-6-7--|
E|--0--0-0-0-0-0-0-0-0--------0----------------|

Solo ending :
G|-------------------|-------------------|
D|-------------------|-------------------|
A|------------5-6-7--|------------5-6-7--|
E|--7~--6-(5)--------|--7~--6-5----------|

Verse : (x2)
G|-----------------------------------------------|
D|-----------------------------------------------|
A|-----------------------------------------------|
E|--0--0-0-0-0-0-0-0-0--3--0-0-0-0-0-2--0-0-0-0--|

G|---------------------------------------------|
D|---------------------------------------------|
A|----------------------2--3-----4--5---5-6-7--|
E|--0--0-0-0-0-0-0-0-0--------0----------------|

Verse ending : (x2)
G|-------------------|
D|-------------------|
A|------------5-6-7--|
E|--7~--6-5----------|

Solo : (x2)
G|-----------------------------------------------|
D|-----------------------------------------------|
A|-----------------------------------------------|
E|--0--0-0-0-0-0-0-0-0--3--0-0-0-0-0-2--0-0-0-0--|

G|---------------------------------------------|
D|---------------------------------------------|
A|----------------------2--3-----4--5---5-6-7--|
E|--0--0-0-0-0-0-0-0-0--------0----------------|

Outro :
G|------------------------------------------------------|
D|------------------------------------------------------| x2
A|------------------------------------------------------|
E|--0--0-0-0-0-0-0--1/2--3/4--6--5-5-5-5-5-5--5\4--4\3--|

G|---------------------------|
D|---------------------------| until fade out
A|---------------------------|
E|--0-0-0-0-0-0-0-0-0-0-0-0--|
            
Submit corrections


        The Hearth Beneath lessons Hard to play? Try these video lessons and learn fast The Hearth Beneath lessons
        
↑ Back to top | Tablatures and chords for acoustic guitar and electric guitar, ukulele, drums are parodies/interpretations of the original songs. You may use it for private study, scholarship, research or language learning purposes only