» » »

Celtic Frost - Into The Crypts Of Rays Bass

Artists:  A B C D E F G H I J K L M N O P Q R S T U V W X Y Z # 

Into The Crypts Of Rays Bass

(ver. 1) Click to play this song!
Celtic Frost
 Rating:
4.4/5 (7 votes)

 Into The Crypts Of Rays lessons Tabs too difficult? Try these video lessons and learn fast
 
                
Intro :                      x3                                                   x2
G|-----------------------------|----------------------------------------------------|
D|-----------------------------|----------------------------------------------------|
A|--2--2--2--2--2--2--2--2--0--|--0--2---------------------0--2--5---5--5--5--5--5--|
E|-----------------------------|--------1---1--1--1--1------------------------------|

Break :
G|---------|-----------------------------------------------------------|
D|---------|-----------------------------------------------------------|
A|---------|--2--2--2--2--2--2--2--2--0-----2--2--2--2--2--2--2--2--0--|
E|--7/19~--|-----------------------------------------------------------|

Verse :
G|-------------------------------------| 
D|-------------------------------------| x4
A|-------------------------------------|
E|--2--2--2--2--2--2--2--2----0--0--2--|

Pre-Chorus :
G|---------------------------|-----------|
D|---------------------------|-----------| x3
A|--2--2--2--2--2--2--2--2---|--3--4--5--|
E|---------------------------|-----------|

G|---------------------------|-----------|
D|---------------------------|-----------|
A|--2--2--2--2--2--2--2--2---|--5--4--3--|
E|---------------------------|-----------|

Chorus :
G|-------------------------------------------|
D|-------------------------------------------| x3
A|--0--0--0--0--0--0--0--0----3--2--1--2--3--|
E|-------------------------------------------|

G|----------------------------------------|
D|----------------------------------------|
A|--0--0--0--0--0--0--0--0----3--2--1--2--|
E|----------------------------------------|

Break :
G|-----------------------------|
D|-----------------------------| x3
A|--2--2--2--2--2--2--2--2--0--|
E|-----------------------------|

Verse :
G|-------------------------------------|
D|-------------------------------------| x4
A|-------------------------------------|
E|--2--2--2--2--2--2--2--2----0--0--2--|

Pre-Chorus :
G|---------------------------|-----------|
D|---------------------------|-----------| x3
A|--2--2--2--2--2--2--2--2---|--3--4--5--|
E|---------------------------|-----------|

G|---------------------------|-----------|
D|---------------------------|-----------|
A|--2--2--2--2--2--2--2--2---|--5--4--3--|
E|---------------------------|-----------|

Chorus :
G|-------------------------------------------|
D|-------------------------------------------| x3
A|--0--0--0--0--0--0--0--0----3--2--1--2--3--|
E|-------------------------------------------|

G|----------------------------------------|
D|----------------------------------------|
A|--0--0--0--0--0--0--0--0----3--2--1--2--|
E|----------------------------------------|

Break :
G|-----------------------------------|
D|-----------------------------------| x4
A|--------------------------7--7--7--|
E|--0--0--0--0--0--0--0--0-----------|

Breakdown Verse :
G|---------------------------------------------|
D|---------------------------------------------| x3
A|---------------------------------------------|
E|--0--0--6--0--0--7--0--0--6--0--0--7--7-7-7--|

Bass Break ('Watching them limp and die...') :
G|-------------|------------------|-------------------|-----------------------|
D|-------------|------------------|-------------------|-----------------------|
A|-------------|------------------|-------------------|-----------------------|
E|--5/7---5h7--|--7----5/7---5/7--|--7-6-5---7---5h7--|--7-6-5---7---9--8--7--|

Break :
G|-----|-----|-------------------|
D|-----|-----|-------------------|
A|-----|-----|-------------------|
E|--3--|--5--|--7--6--5----/12\--|

G|-------------------------------------------------------|
D|-------------------------------------------------------|
A|-------------------------------------------------------|
E|--0--0--0--3-3--0--0--0--5-5--0--0--0--9--8--7---/14\--|

G|-------------------------------------------------------|
D|-------------------------------------------------------|
A|-------------------------------------------------------|
E|--0--0--0--3-3--0--0--0--5-5--0--0--0--7--6--5---/12\--|

G|-------------------------------------------------------|
D|-------------------------------------------------------|
A|-------------------------------------------------------|
E|--0--0--0--3-3--0--0--0--5-5--0--0--0--9--8--7---/14\--|

Pre-Solo :
G|-----------------------------|
D|-----------------------------| x2
A|--2--2--2--2--2--2--2--2--0--|
E|-----------------------------|

Solo :
G|-------------------------------------|
D|-------------------------------------| x4
A|-------------------------------------|
E|--2--2--2--2--2--2--2--2----0--0--2--|

G|-----------------------------|
D|-----------------------------| x4
A|--2--2--2--2--2--2--2--2--0--|
E|-----------------------------|

Verse :
G|-------------------------------------|
D|-------------------------------------| x4
A|-------------------------------------|
E|--2--2--2--2--2--2--2--2----0--0--2--|

Pre-Chorus :
G|---------------------------|-----------|
D|---------------------------|-----------| x3
A|--2--2--2--2--2--2--2--2---|--3--4--5--|
E|---------------------------|-----------|

G|---------------------------|-----------|
D|---------------------------|-----------|
A|--2--2--2--2--2--2--2--2---|--5--4--3--|
E|---------------------------|-----------|

Chorus :
G|-------------------------------------------|
D|-------------------------------------------| x3
A|--0--0--0--0--0--0--0--0----3--2--1--2--3--|
E|-------------------------------------------|

G|----------------------------------------|
D|----------------------------------------|
A|--0--0--0--0--0--0--0--0----3--2--1--2--|
E|----------------------------------------|

G|-----------------------------|
D|-----------------------------| x3
A|--2--2--2--2--2--2--2--2--0--|
E|-----------------------------|

Verse :
G|-------------------------------------|
D|-------------------------------------| x4
A|-------------------------------------|
E|--2--2--2--2--2--2--2--2----0--0--2--|

Pre-Chorus :
G|---------------------------|-----------|
D|---------------------------|-----------| x3
A|--2--2--2--2--2--2--2--2---|--3--4--5--|
E|---------------------------|-----------|

G|---------------------------|-----------|
D|---------------------------|-----------|
A|--2--2--2--2--2--2--2--2---|--5--4--3--|
E|---------------------------|-----------|

Chorus :
G|-------------------------------------------|
D|-------------------------------------------| x3
A|--0--0--0--0--0--0--0--0----3--2--1--2--3--|
E|-------------------------------------------|

G|----------------------------------------|
D|----------------------------------------|
A|--0--0--0--0--0--0--0--0----3--2--1--2--|
E|----------------------------------------|

Ending :
G|-----------------------------------|
D|-----------------------------------| x3
A|--------------------------7--7--7--|
E|--0--0--0--0--0--0--0--0-----------|

G|------------------------------|
D|------------------------------|
A|--------------------------7~--|
E|--0--0--0--0--0--0--0--0------|            
Submit corrections


        Into The Crypts Of Rays lessons Hard to play? Try these video lessons and learn fast Into The Crypts Of Rays lessons
        
↑ Back to top | Tablatures and chords for acoustic guitar and electric guitar, ukulele, drums are parodies/interpretations of the original songs. You may use it for private study, scholarship, research or language learning purposes only