Home » C » Cat Stevens »

Cat Stevens - Dont Be Shy Tabs

Artists:  A B C D E F G H I J K L M N O P Q R S T U V W X Y Z # 

Dont Be Shy Tabs

(ver. 1) Click to play this song!
Cat Stevens
 Rating:
2.2/5 (24 votes)
                Chorus:
e|-0--0--0--------0---------0--------0---0---0--0-0----|
B|-5--5--3--------3---------5--------5---5---3--3-5----|
G|-6--4--2--------2---------4--------6---4---2--2-4----|
D|-7--6--4--------4---------6--------7---6---4--4-6----|
A|-0--0--0--------0---------0--------0---0---0--0-0----|
E|-x--x--x--------x---------x--------x---x---x--x-x----|

Don't be shy, just let your feelings roll on by....

e|-0---0----0-------0-----------0-------0---0---0--0-0---|
B|-5---5----3-------3-----------5-------5---5---3--3-5---|
G|-6---4----2-------2-----------4-------6---4---2--2-4---|
D|-7---6----4-------4-----------6-------7---6---4--4-6---|
A|-0---0----0-------0-----------0-------0---0---0--0-0---|
E|-x---x----x-------x-----------x-------x---x---x--x-x---|
 Don't wear fear or nobody will know you're there

...and so on...

e|-0--0--0--0---0--0--0--0----|
B|-5--5--5--3---5--5--5--3----|
G|-4--6--4--2---4--6--4--2----|
D|-6--7--6--4---6--7--6--4----|
A|-0--0--0--0---0--0--0--0----|
E|-x--x--x--x---x--x--x--x----|

   On by on by, on by on by...            
Submit corrections

↑ Back to top | Tablatures and chords for acoustic guitar and electric guitar, ukulele, drums are parodies/interpretations of the original songs. You may use it for private study, scholarship, research or language learning purposes only