» » »

Casualties - *** You All Tabs

Artists:  A B C D E F G H I J K L M N O P Q R S T U V W X Y Z # 

*** You All Tabs

(ver. 1) Click to play this song!
Casualties
 Rating:
4/5 (4 votes)

 *** You All lessons Tabs too difficult? Try these video lessons and learn fast
 
                Intro


G|-------------------------------
D|-------------------------------
A|--------9-----4-----7---------- 
E|--7----------------------------

G|----------------------------------------------------------------------------
D|----------------------------------------------------------------------------
A|---------------------9-9-9-9-9-9-9-9----4-4-4-4-4-4-4-4----7-7-7-7-7-7-7-7--
E|--7-7-7-7-7-7-7-7-----------------------------------------------------------

G|-----------------------------------
D|-----------------------------------
A|--------9-9-----4-4------7--7--7---
E|--7-------------------------------- 


Verse:

G|---------------------------------------- x4
D|----------------------------------------
A|------------9-9-9-9---4-4-4-4---9-9-9-9
E|--7-7-7-7------------------------------

G|---------------------------------------- x4
D|----------------------------------------
A|--7-7-7-7--------------4-4-4-4---9-9-9-9
E|------------7-7-7-7---------------------

G|--------------------| 
D|--------------------| 
A|--9-7-6-4-----------| 
E|--------------------|
            
Submit corrections


        *** You All lessons Hard to play? Try these video lessons and learn fast *** You All lessons
        
↑ Back to top | Tablatures and chords for acoustic guitar and electric guitar, ukulele, drums are parodies/interpretations of the original songs. You may use it for private study, scholarship, research or language learning purposes only