» » »

Casualties - Ruining It All Tabs

Artists:  A B C D E F G H I J K L M N O P Q R S T U V W X Y Z # 

Ruining It All Tabs

(ver. 1) Click to play this song!
Casualties
 Rating:
4/5 (4 votes)

 Ruining It All lessons Tabs too difficult? Try these video lessons and learn fast
 
                Verse:

E-----------------------------------------------
B-----------------------------------------------
G-------9---5---7---5---------------------------
D---7---9---5---7---5---------------------------
A---7---7---3---5---3---------------------------
E---5-------------------------------------------


Chorus:

E------------------------------------------------
B------------------------------------------------
G---9---12---9---12------------------------------
D---9---12---9---12---12---10--------------------
A---7---10---7---10---12---10--------------------
E---------------------10---8---------------------
            
Submit corrections


        Ruining It All lessons Hard to play? Try these video lessons and learn fast Ruining It All lessons
        
↑ Back to top | Tablatures and chords for acoustic guitar and electric guitar, ukulele, drums are parodies/interpretations of the original songs. You may use it for private study, scholarship, research or language learning purposes only