» » »

Casualties - Punks And Skins Tabs

Artists:  A B C D E F G H I J K L M N O P Q R S T U V W X Y Z # 

Punks And Skins Tabs

(ver. 1) Click to play this song!
Casualties
 Rating:
4/5 (4 votes)

 Punks And Skins lessons Tabs too difficult? Try these video lessons and learn fast
 
                Punks and Skins

Intro 4x 

e|----------------------------------- 
b|----------------------------------- 
g|--------------------------9-5-7--- 
d|-----7-------5---5---7--7-9-5-7------------ 
a|-------7---3---3---5--5---7-3-5----------- 
e|---5-----5-------------------------- 

Part1 4x 

e|------------------------------------ 
b|------------------------------------ 
g|------5-7-9-5-7------------------------ 
d|---7--5-7-9-5-7-------------------------- 
a|---7--3-5-7-3-5--------------------------- 
e|---5--------------------------------- 

(CH) 

e|---------------------------------- 
b|---------------------------------- 
g|-------7-----7-----7-9-9-9-9-9-9-9------ 
d|---7-5-7-7-5-7-7-5-7-9-9-9-9-9-9-9------ 
a|---7-5-5-7-5-5-7-5-5-7-7-7-7-7-7-7----- 
e|---5-3---5-3---5-3---------------------- 
Part1 

(CH) 

Outro 

e|------------------------------ 
b|------------------------------
g|-----5-7-9-5-7--------------------
d|---7-5-7-9-5-7-7-5-7-------------------
a|---7-3-5-7-3-5-7-5-7-----------------
e|---5-----------5-3-5-------------
            
Submit corrections


        Punks And Skins lessons Hard to play? Try these video lessons and learn fast Punks And Skins lessons
        
↑ Back to top | Tablatures and chords for acoustic guitar and electric guitar, ukulele, drums are parodies/interpretations of the original songs. You may use it for private study, scholarship, research or language learning purposes only