» » »

Casualties - Politicians Tabs

Artists:  A B C D E F G H I J K L M N O P Q R S T U V W X Y Z # 

Politicians Tabs

(ver. 1) Click to play this song!
Casualties
 Rating:
4/5 (4 votes)

 Politicians lessons Tabs too difficult? Try these video lessons and learn fast
 
                intro:
e|-----------------------|
b|-----------------------|
g|---let ring----9-------| x6
d|-9-let ring----9-7-6-7-|
a|-9-let ring----7-7-6-7-|
E|-7-let ring------5-4-5-|

verse:
e|-----------------|
b|-----------------|
g|---------9-------| x4
d|-9-9-9-9-9-7-6-7-|
a|-9-9-9-9-7-7-6-7-|
E|-7-7-7-7---5-4-5-|

filling:
e|-----------------|
b|-----------------|
g|-----------------|
d|-7-7-7-7-7-7-etc-|
a|-7-7-7-7-7-7-etc-|
E|-5-5-5-5-5-5-etc-|

chorus:
e|-------------------------|
b|-------------------------|
g|---------9-9-9-9---------| x4
d|-9-9-9-9-9-9-9-9-7-7-7-7-|
a|-9-9-9-9-7-7-7-7-7-7-7-7-|
E|-7 7-7-7---------5-5-5-5-|

order:
bass intro
intro
filling
verse
chorus
verse
filling
verse
chorus
verse
filling
verse
chorus
            
Submit corrections


        Politicians lessons Hard to play? Try these video lessons and learn fast Politicians lessons
        
↑ Back to top | Tablatures and chords for acoustic guitar and electric guitar, ukulele, drums are parodies/interpretations of the original songs. You may use it for private study, scholarship, research or language learning purposes only