» » »

Casualties - Political Sin Tabs

Artists:  A B C D E F G H I J K L M N O P Q R S T U V W X Y Z # 

Political Sin Tabs

(ver. 1) Click to play this song!
Casualties
 Rating:
4/5 (4 votes)

 Political Sin lessons Tabs too difficult? Try these video lessons and learn fast
 
                e|---------------------------------------------------------------------------|
B|---------------------------------------------------------------------------|
G|------12-11-12-11------11----12--11--9-------------------------------------|
D|-------------------12------9------------12---------------------------------|
A|---------------------------------------------------------------------------|
E|---------------------------------------------------------------------------|

e|---------------------------------------------------------------------------|
B|---------------------------------------------------------------------------|
G|------12-11-12-11------11----12--11--9-------------------------------------|
D|-------------------12------9------------12---------------------------------|
A|---------------------------------------------------------------------------|
E|---------------------------------------------------------------------------|

e|---------------------------------------------------------------------------|
B|---------------------------------------------------------------------------|
G|------12-11-12-11------11----12--11--9-------------------------------------|
D|-------------------12------9------------12---------------------------------|
A|---------------------------------------------------------------------------|
E|---------------------------------------------------------------------------|
            
Submit corrections


        Political Sin lessons Hard to play? Try these video lessons and learn fast Political Sin lessons
        
↑ Back to top | Tablatures and chords for acoustic guitar and electric guitar, ukulele, drums are parodies/interpretations of the original songs. You may use it for private study, scholarship, research or language learning purposes only