» » »

Casting Crowns - Silent Night Tabs

Artists:  A B C D E F G H I J K L M N O P Q R S T U V W X Y Z # 

Silent Night Tabs

(ver. 1) Click to play this song!
Casting Crowns
 Rating:
4.3/5 (23 votes)

 Silent Night lessons Tabs too difficult? Try these video lessons and learn fast
 
                [Intro]
e |---------------------|----------------------------------------|
B |----------6----------|--------------6-------------------------|
G |o------3--------3----|--------3-----------3-----5--3----------|
D |o---3--------3-------|--------------------------------7-------|
A |---------------------|----------------------------------------|
E |-6-------------------|--6-------------------------------------|

e |----------------------|
B |-----------6----------|
G |--------3--------3----|
D |-----3--------3-------|
A |----------------------|
E |--6-------------------|

1st Ending         (triplet 16ths)
e |--------------------------------------------------------------------------------|
B |--------------------------------------------------------6-----------------------|
G |--------------------------------------3-----------------------------------------|
D |--------------------3-----5-----7-----------------------------------------7-----|
A |--------------------------------------------------------------------------------|
E |--6-----------------------------------------------------------------------------|

e |-------------------------------||
B |-------------------------------||
G |------------------------------o||
D |---5--------3-----------------o||
A |-------------------------------||
E |-------------------------------||

2nd Ending (triplet 16ths)                                    [Verse] Silent night...
e |-----------------------------5----------------------------||------|
B |--------------------------------------6-------------------||------|
G |--------------------3--------------------------3----------||o-----|
D |-----------3--5--7----------------------------------------||o-----|
A |----------------------------------------------------------||------|
E |--6-------------------------------------------------------||------|

                       Holy night...                  all is calm...
e |----------------------|-------|--------3-------------|-------------|
B |----------------------|-------|-----------6L-6-------|-----6-------|
G |--------3-------------|-------|--------------5-------|--------5----|
D |-----3----------------|-------|----------------------|--5----------|
A |----------------------|-------|----------------------|-------------|
E |----------------------|-------|----------------------|-------------|

                       all is bright...
e |----------------------|-------------|
B |--------6-------------|--------6----|
G |--------------5--3----|-------------|
D |----------------------|-------------|
A |----------------------|--5----------|
E |----------------------|-------------|

                                                           'round yon virgin...
e |-----------------------------5----------------------------|----------|
B |--------------------------------------6-------------------|-----3L---|
G |--------------------3--------------------------3----------|----------|
D |-----------3--5--7----------------------------------------|--5-------|
A |----------------------------------------------------------|----------|
E |----------------------------------------------------------|----------|

                       mother and Child...
e |--------3-------------|----------------------|-----------6----------|
B |--3--------6----------|-----------6----------|--------4-----3-------|
G |--------------3-------|--------------3-------|-----------------3----|
D |----------------------|--------3-------------|----------------------|
A |----------------------|----------------------|----------------------|
E |----------------------|----------------------|----------------------|

Holy infant...                                Tender and mild...
e |-----------3----------|----------------------|----------|----------------------|
B |--------------3-------|-----------3----------|-----6----|-----------6----------|
G |--------3--------3----|--------------3-------|--3-------|--------3-------------|
D |----------------------|----------------------|----------|--------------3-------|
A |----------------------|----------------------|----------|----------------------|
E |----------------------|----------------------|----------|----------------------|

sleep...                                      peace...
e |----------------------|----------------------|----------------------|
B |--------6-------------|--------8--6--3-------|----------------------|
G |-----3----------------|-----------------3----|-----------7----------|
D |--3-------------------|----------------------|--------5-----5--3----|
A |----------------------|----------------------|-----5----------------|
E |----------------------|----------------------|--3-------------------|

                       sleep...
e |----------------------|----------------------|----------------------|
B |----------------------|-----------6L-6-------|-----6----------------|
G |-----------7----------|--------3-------------|--3-----3-------------|
D |--------5-----5--3----|----------------------|----------------------|
A |-----5----------------|----------------------|----------------------|
E |--3-------------------|----------------------|----------------------|

1st Ending
peace...
e|----------------------|----------------------------------------|
B|-----------6----------|--------------6-------------------------|
G|--------3--------3----|--------3-----------3-----5--3----------|
D|-----3--------3-------|--------------------------------7-------|
A|----------------------|----------------------------------------|
E|--6-------------------|--6-------------------------------------|

e|----------------------|
B|-----------6----------|
G|--------3--------3----|
D|-----3--------3-------|
A|----------------------|
E|--6-------------------|

                   (triplet 16ths)
e|--------------------------------------------------------------------------------|
B|--------------------------------------------------------6-----------------------|
G|--------------------------------------3-----------------------------------------|
D|--------------------3-----5-----7-----------------------------------------7-----|
A|--------------------------------------------------------------------------------|
E|--6-----------------------------------------------------------------------------|

                                 2nd ending
                                 born...                Instrumental:
e|-------------------------------||-----------3----------|----------------------|
B|-------------------------------||--6-----------6-------|--3-------------------|
G|------------------------------o||----------------------|--------------3h-5----|
D|---5--------3-----------------o||----------------------|----------------------|
A|-------------------------------||----------------------|----------------------|
E|-------------------------------||----------------------|----------------------|

e|-----------3----------|-------|----------------------|--------3-------------|
B|--6-----------6-------|--3----|--------6-------------|-----6-----6----------|
G|----------------------|-------|-----5--------5-------|--------------5--3----|
D|----------------------|-------|--7-------------------|----------------------|
A|----------------------|-------|----------------------|----------------------|
E|----------------------|-------|----------------------|----------------------|

                                [Bridge]
                                 With the angels...                let us sing...
e|----------------------|-------|----------|-----------6g---------|----|
B|-----------6----------|-------|-----3g---|--------------3g------|----|
G|--3-----------3--5L---|--5----|----------|----------------------|----|
D|----------------------|-------|----------|----------------------|----|
A|----------------------|-------|----------|----------------------|----|
E|----------------------|-------|----------|----------------------|----|

Halelujah...                                             to our King...
e|-----------6----------|----------|--------3g------------|-------|
B|--------4-----3-------|-----3g---|-----------3g-3L------|--3----|
G|----------------------|----------|----------------------|-------|
D|----------------------|----------|----------------------|-------|
A|----------------------|----------|----------------------|-------|
E|----------------------|----------|----------------------|-------|

                       Christ...
e|--10----8-----6-------|-------------|----------------------|
B|-----10----8----------|-----6-------|-----------6--4--3----|
G|--------------3g------|-------------|----------------------|
D|----------------------|-------------|----------------------|
A|----------------------|-------------|----------------------|
E|----------------------|-------------|----------------------|

born...                                       Christ...
e|----------------------|----------------------|-------------|
B|----------------------|--------3-------------|-------------|
G|-----------3L-3L------|--3--3-----3L-3-------|--------3----|
D|--------5-------------|----------------------|-----3-------|
A|-----5----------------|----------------------|--3----------|
E|--3-------------------|----------------------|-------------|

Savior...              born...
e|----------------------|-----------3----------|
B|--------6-----6h-4----|--6-----------6-------|
G|-----3-----3----------|----------------------|
D|--3-------------------|----------------------|
A|----------------------|----------------------|
E|----------------------|----------------------|

[Outro]                          (triplet 16ths)
e|----------------------------------------------------------|
B|--3-------------------------------------------------------|
G|-----------------------------------------------3----------|
D|--------------------------------------3--5--7-------------|
A|----------------------------------------------------------|
E|----------------------------------------------------------|

e|----------------------|
B|--3--------4--3-------|
G|----------------------|
D|----------------------|
A|----------------------|
E|----------------------|

                                     (triplet 16ths)
e|--------------------------------------------------------------------------------|
B|--------------------------------------------------------------------------------|
G|--3-----------------------------------------------------3-----------------------|
D|--------------------------------------3-----5-----7-----------------------7-----|
A|--------------------------------------------------------------------------------|
E|--------------------------------------------------------------------------------|

e|--------------------------------|----------------------|
B|--------------------------------|-----------6----------|
G|--------------------------------|--------3--------3----|
D|---5--------3-------------------|-----3--------3-------|
A|--------------------------------|----------------------|
E|--------------------------------|--6-------------------|

e|----------------------------------------|----------------------|
B|--------------6-------------------------|-----------6----------|
G|--------3-----------3-----5--3----------|--------3--------3----|
D|--------------------------------7-------|-----3--------3-------|
A|----------------------------------------|----------------------|
E|--6-------------------------------------|--6-------------------|

     (triplet 16ths)
e|-----------------------------5----------------------------|
B|--------------------------------------6-------------------|
G|--------------------3--------------------------3----------|
D|-----------3--5--7----------------------------------------|
A|----------------------------------------------------------|
E|--6-------------------------------------------------------|

e |----------------------||
B |--------6-------------||
G |-----3--5-------------||
D |----------------------||
A |----------------------||
E |--6L-6L-6-------------||
            
Submit corrections


        Silent Night lessons Hard to play? Try these video lessons and learn fast Silent Night lessons
        
↑ Back to top | Tablatures and chords for acoustic guitar and electric guitar, ukulele, drums are parodies/interpretations of the original songs. You may use it for private study, scholarship, research or language learning purposes only